String Cheese Incident - Lester Had A Coconut Chords & Tabs

 

Lester Had A Coconut Chords & Tabs

String Cheese Incident Chords & Tabs

Version: 1 Type: Bass Tab 0 ratings
1 star 2 stars 3 stars 4 stars 5 stars
comments

Lester Had A Coconut Bass Tab

Band: Cheese String Incident
Song: Lester Had a Coconut (live)


G---------------------------------
D------------6-----8-(8)11--99-6--
A---6-(6)9-77-7--9---------------9 
E-7------------------------------- 

G---------------------------------
D---------------------------------
A---6-(6)9-7---6h7h9--------------
E-7------------------6-7\1--------
[ Tab from: http://www.guitartabs.cc/tabs/s/string_cheese_incident/lester_had_a_coconut_btab.html ]
This is the little bass solo diddy from the live version of 
Lester Had a Coconut (5-8-98).  This is the only part I figured 
out.  The rest of the song is pretty much improv.  By the way, I
know the album version of the song is in a totally different key
so don't email me telling me how stupid I am, but I'm pretty sure 
that this is correct for the live version.

Chris (sauron420@home.com)

Comments