Strike Anywhere - Refusal Chords & Tabs

 

Refusal Chords & Tabs

Strike Anywhere Chords & Tabs

Version: 1 Type: Tab 0 ratings
1 star 2 stars 3 stars 4 stars 5 stars
comments

Refusal Tab

   
  hey watsup everybody out there.. i didnt c any tabs for this song..
its an osm song so im gonna try tabbing it.. even tho im not very good
at it.. nyway heres the song..

---------------------------------------------------------------------------
			 Refusal - Strike Anywhere
---------------------------------------------------------------------------
Tabbed by: Ross Ribblett
Email:RossRibblett24@yahoo.com

Tuning: Standard

Key: / = slide chord
     * = palm mute
     h = hammer on note
     p = pull off note

      Intro pt. 1
e|----------------P----------------|
B|-----------------I--S------------|
G|-5---5/7---7/9----C--L-----------|
D|-5---5/7---7/9-----K--I----------| X 1
A|-3~--3/5~--5/7~--------D---------|
E|------------------------E--------|

     Intro pt. 2
e|-------------------------------------------------------------|
B|-------------------------------------------------------------|
G|-------------------7-7---------------------------------------|
D|-5-5-5-5-5-5-5-5-5-7-7-7-7-9-9-9-9-9-9-9-9-9-9-9-9-----------|
A|-5-5-5-5-5-5-5-5-5-5-5-7-7-9-9-9-9-9-9-9-9-9-9-9-9-----------|
E|-3-3-3-3-3-3-3-3-3-----5-5-7-7-7-7-7-7-7-7-7-7-7-7-----------|
 |                                                             | X 2
e|---------------------------------------------------P---------|
B|----------------------------------------------------I--S-----|
G|-----------------------------------------------------C--L----|
D|-5-5-5-5-5-5/7-7-7-7-7-7/9-9-9-9-9-9-9-9-9-9-9-9-9----K--I---|
B|-5-5-5-5-5-5/7-7-7-7-7-7/9-9-9-9-9-9-9-9-9-9-9-9-9--------D--|
E|-3-3-3-3-3-3/5-5-5-5-5-5/7-7-7-7-7-7-7-7-7-7-7-7-7---------E-|
     * * * *     * * * *
[ Tab from: http://www.guitartabs.cc/tabs/s/strike_anywhere/refusal_tab.html ]
      Verses
e|---------------------------------------------------------------------|
B|---------------------------------------------------------------------|
G|-------5-5-5-5-5-5-5-5-----------------7-7---------------------------|
D|-------5-5-5-5-5-5-5-5-5-5-5-5-5-5-5-5-7-7-7-7-----------------------| X 2
A|-------3-3-3-3-3-3-3-3-5-5-5-5-5-5-5-5-5-5-7-7-9-9-9-9-9-9-9-9-------|
E|-break-----------------3-3-3-3-3-3-3-3-----5-5-7-7-7-7-7-7-7-7-------|

      Chorus
e|------------------------------------------------------------------|
B|------------------------------------------------------------------|
G|--5-5-5-5-5-5-5-5-----------------7-7-7-7-------------------------|
D|--5-5-5-5-5-5-5-5-5-5-5-5-5-5-5-5-7-7-7-7-7-7-9-9-5-5-5-5-5-5-5-5-| X 2
A|--3-3-3-3-3-3-3-3-5-5-5-5-5-5-5-5-5-5-5-5-7-7-9-9-5-5-5-5-5-5-5-5-|
E|------------------3-3-3-3-3-3-3-3---------5-5-7-7-3-3-3-3-3-3-3-3-|

 Riff Before Interlude
e|---------------------|
B|---------------------|
G|---------------------|
D|---------------------|
A|-------4h5-----------|
E|-5h7p5-----7p5h7-----|

      Interlude
e|--------------------------------------------------------------------|
B|--------------------------------------------------------------------|
G|-5-5-5-5-5-5-5-5-------------------7-7------------------------------|
D|-5-5-5-5-5-5-5-5-5-5-5-5-5-5-5-5-5-7-7-7-7-9-9-9-9-9-9-9-9-9-9-9-9--| X 4
A|-3-3-3-3-3-3-3-3-5-5-5-5-5-5-5-5-5-5-5-7-7-9-9-9-9-9-9-9-9-9-9-9-9--|
E|-----------------3-3-3-3-3-3-3-3-3-----5-5-7-7-7-7-7-7-7-7-7-7-7-7--|

    Outro Chorus
e|----------------------------------------|
B|----------------------------------------|
G|-5-5-------7-7--------------------------|
D|-5-5--5-5--7-7--7-7--9-9--5-5--7-7--7-7-| X 2
A|-3-3--5-5--5-5--7-7--9-9--5-5--7-7--7-7-|
E|------3-3-------5-5--7-7--3-3--5-5--5-5-|

 End on
e|-----|
B|-----|
G|-----|
D|-5-5-|
A|-5-5-|
E|-3-3-|

   
   im pretty sure most of this tab is right.. except the riff before the
inturlude doesnt sound quite right.. if you have any comments, corrections
or questions you can e-mail.. me.. later.
Comments