Strike Anywhere - Antidote Chords & Tabs

 

Antidote Chords & Tabs

Strike Anywhere Chords & Tabs

Version: 1 Type: Bass Tab

Antidote Bass Tab

   
   Q  Q  E E E E   +E E  Q   E  E  E  E

1|-9--9--9-9-9-9--|---9--9---9--9--9--9--|
2|-7--7--7-7-7-10-|---10-10--10-10-10-10-|
3|----------------|----------------------|
4|----------------|----------------------|
[ Tab from: http://www.guitartabs.cc/tabs/s/strike_anywhere/antidote_btab.html ]
   Q   Q   E  E  E  E   +E E  Q   E  E  E  E

1|-12--12--12-12-12-10-|---10-10--10-10-10-10-|
2|-10--10--10-10-10-10-|---10-10--10-10-10-10-|
3|---------------------|----------------------|
4|---------------------|----------------------|

Q - Quarter note
E - Eighth note
+ - Tied note