Strike Anywhere - Amplify Chords & Tabs

 

Amplify Chords & Tabs

Strike Anywhere Chords & Tabs

Version: 1 Type: Tab

Amplify Tab

   
Amplify
Strike Anywhere
Exit English

I'm pretty sure this is correct. If not just email.
dreadlyman420@hotmail.com


E|-------------------------0-0-0-0-0-0-------------|
B|-5-5-5-5-5-5-7-7-7-5-5-5-4-4-4-5-5-5-5-5-5-5-5-5-|
G|-6-6-6-4-4-4-4-4-4-4-4-4-------------4-4-4-6-6-6-|
D|-------------------------------------------------|
A|-------------------------------------------------|
E|-------------------------------------------------|
repeat
[ Tab from: http://www.guitartabs.cc/tabs/s/strike_anywhere/amplify_tab.html ]
E|----------------------------------------|
B|----------------------------------------|
G|----------------------------------------|
D|6-6-2-2-2-----2-2-2-8-8-9-9-9-4-4-6-6-6-|
A|4-4-2-2-2-4-4-2-2-2-6-6-7-7-7-2-2-4-4-4-|
E|----0-0-0-2-2-0-0-0---------------------|
repeat but w/ palm mute

E|-------------------------0-0-0-0-0-0-------------|
B|-5-5-5-5-5-5-7-7-7-5-5-5-4-4-4-5-5-5-5-5-5-5-5-5-|
G|-6-6-6-4-4-4-4-4-4-4-4-4-------------4-4-4-6-6-6-|
D|-------------------------------------------------|
A|-------------------------------------------------|
E|-------------------------------------------------|
repeat

human pollution
E|----------------------|
B|----------------------|
G|----------------------|
D|6-6-6-6----6--6--6--6-|
A|4-4-4-4-2--4--4--4--4-|
E|--------0-------------|
repeat