Strife - Untitled Chords & Tabs

 

Untitled Chords & Tabs

Strife Chords & Tabs

Version: 1 Type: Bass Tab 0 ratings
1 star 2 stars 3 stars 4 stars 5 stars
comments

Untitled Bass Tab

   
artist - strife   
song - untilted
label - victory records
tuning- (low to high) F, C, G, D
tabbed by Brendan Mearns
bren@riconnect.com
this song is really easy to handle and it's a great song!
INTRO AND VERSE
F----------------------------------------------------------------------------------------------
C----------------------------------------------------------------------------------------------
G----------------------------------------------------------------------------------------------
D ---------- 0-- 0-- 0-------- 0-- 0--0--------------------------------------------------------
CHORUS
F----------------------------------------------------------------------------------------------
C----------------------------------------------------------------------------------------------
G ---------------------- 3 ^ 5-- 5------------------ 3 ^ 5--5---------------------- 3 ^ 5-- 5 -
D ------ 0-- 2-- 0------------------- 0-- 0-- 0----------------------- 0-- 2--0----------------
(continued)
G ------------------------------------- 5-- 5-- 5--5-------------------------------------------
D ------------------- 0------------------------------------------------------------------------
this song is on the live and unreleased album put out by victory records and
the whole album is kickass!


[ Tab from: http://www.guitartabs.cc/tabs/s/strife/untitled_btab.html ]
Comments