Streetlight Manifesto - Point Counterpoint Chords & Tabs

 

Point Counterpoint Chords & Tabs

Streetlight Manifesto Chords & Tabs

Version: 1 Type: Tab 0 ratings
1 star 2 stars 3 stars 4 stars 5 stars
comments

Point Counterpoint Tab

Intro:
"I've got a gun in my hand..."    {---6x----------|
E-0--------------------------------2-0-0-0--------|
B-0--------------------------------3-2-0-2--------|
G-1--------------------------------2-2-1-2--------|
D-2--------------------------------0-2-2-2--------|
A-2--------------------------------0-0-2-0--------|
E-0--------------------------------0--------------|

The little thing before that brass (if you want to)
E--------------------|
B--999--77-----------|
G--999--77-----------|
D--999--77-----------|
A--777--55-----------|
E--------------------|

Durring Brass section
E--5-5-5-5---0-0---2-2--------------------------|
B--5-5-5-5---0-0---3-3--------------------------|(up he is fast)
G--6-6-6-6---1-1---2-2--------------------------|play like 6 times!
D--7-7-7-7---2-2---0-0--------------------------|
A--7-7-7-7---2-2---0-0--------------------------|
E--5-5-5-5---0-0--------------------------------|
[ Tab from: http://www.guitartabs.cc/tabs/s/streetlight_manifesto/point_counterpoint_tab.html ]
The Chorus is the intro fast
here is the intor again so you don't neet to look up the page while playying
(i an too darn nice,lol)
E-0-------------2-0-0-0-------|
B-0-------------3-2-0-2-------|
G-1-------------2-2-1-2-------|
D-2-------------0-2-2-2-------|
A-2-------------0-0-2-0-------|
E-0-------------0-------------|

that interlude is a A chord baby!
E--0
B--2
G--2
D--2
A--0
E---

Now for the Bridge!
E----7-------------|
B--9-7-7-9---------|
G--9-8-7-9---------|(not sure how many times but you can make it work)
D--9-9-7-9---------|
A--7-9-5-7---------|
E----7-------------|

Ther it is back to the intro
(that i again put for you lol)
E-0-------------2-0-0-0-------|
B-0-------------3-2-0-2-------|
G-1-------------2-2-1-2-------|
D-2-------------0-2-2-2-------|
A-2-------------0-0-2-0-------|
E-0-------------0-------------|

Then end the whole party on with
E--7--------------------|
B--7--7-----------------|
G--7--7--6--------------|
D--7--7--7--------------|
A--9--5--7--------------|
E--7-----5--------------|


So there it is my first tab
love it or hate it either way it rapes what you had before you found me!
Comments