Streetlight Manifesto - Heres To Life Chords & Tabs

 

Heres To Life Chords & Tabs

Streetlight Manifesto Chords & Tabs

Version: 1 Type: Bass Tab

Heres To Life Bass Tab

   
-------------------------------------------------------------------------------
			     HERE'S TO LIFE - Streetlight Manifesto
-------------------------------------------------------------------------------

Tabbed By : Aaron Schecter
e-mail: aarons425@yahoo.com

Tuning: Standard

This tab is pretty straightforward, just watch out, its hella fast. Also beware
of timing, a lot of it is out of sync with the guitar. I tried to make the
fingering as easy as possible, otherwise it's a real arm workout. Have fun.

Intro 
G|--------------------------------|--------------------------------|
D|----------------2-202-----------|--------3---2--23-2-------------|
A|--------0--23-20------320-------|0-2-3-20------------3-2-0-------|
E|--------------------------------|--------------------------------|

G|------------------------------------|----------------------------9---|
D|-----------------5-23-5------10p9p7-|--------------------------9-----|
A|0-023-203-333333---------0----------|0-023-203-333333----------------|
E|------------------------------------|----------------0---0---0-------|

G|-----------------------------------|--------------------------------|
D|----------------------------10p9p7-|--------------------------------|
A|0-0-0-0-3-3-3-3---------0-0--------|0-023-203-333333--------7-------|
E|----------------3-3-3-3------------|----------------0000000---------|

Verse1
G|---------------------9-7----7--------|--------------------------------|
D|7-777-10-12-10-9-7-7-----10---9-9-10-|---------------/7---------7777--|
A|-------------------------------------|--------------------0-00-0----7-|
E|-------------------------------------|0---0---0---0-------------------|

G|---------------------9-7----7--------|--------------------------------|
D|7-777-10-12-10-9-7-7-----10---9-9-10-|--------------------------7777--|
A|-------------------------------------|--------------------0-00-0----7-|
E|-------------------------------------|0---0---0---0--/5---------------|

G|--------------------------------|--------------------9-----------|
D|--------------------------------|------------------9---9---------|
A|--------3---------------0-------|----3---5---7-7-----------7-7---|
E|1---------------3---------------|1--1----------------------------|

Chorus1
G|--------------------------------|--------------------------------------|
D|----10--------------10----------|----10--------------------------------|
A|0---------------0---------------|0---------------0---------------------|
E|----------3-1-------------3-1---|----------3-1-----------------0-0-----|

Interlude
G|----------------------10-9-7----7--------|--------------------------------|
D|7-10p7-10p9-12-10-9-7--------10---9-9910-|--------------------------------|
A|-----------------------------------------|--------------------------------|
E|-----------------------------------------|0---0---0---0--/5---------------|

Verse2
G|--------------------------------|--------------------------------|
D|--------------------------------|--------------------------------|
A|--------------------------------|--------------------------------|
E|5--------------/5---------------|0--------------/5---------------|

G|--------------------------------|--------------------------------|
D|--7---7---7-7-----7---7---7-7---|----------------7---------------|
A|--------------7---------------7-|--7---7---7-8-7-----------------|
E|--------------------------------|--------------------------------|



Interlude
G|-----------------------------------|----------------------------9---|
D|-----------------5-23-5-----10p9p7-|--------------------------9-----|
A|0-023-203-333333---------0---------|0-023-203-333333----------------|
E|-----------------------------------|----------------0---0---0-------|

G|-----------------------------------|--------------------------------|
D|----------------------------10p9p7-|--------------------------------|
A|0-0-0-0-3-3-3-3---------0-0--------|-0-023-203-333333--------7------|
E|----------------3-3-3-3------------|-----------------0---0----------|

G|--------------------------------|--------------------9-----------|
D|--------------------------------|------------------9---9---------|
A|--------3---------------0-------|----3---5---7-7-----------7-7---|
E|1---------------3---------------|1--1----------------------------|
[ Tab from: http://www.guitartabs.cc/tabs/s/streetlight_manifesto/heres_to_life_btab.html ]
Chorus2
G|--------------------------------|--------------------------------------|
D|----10---------------10---------|----10--------------------------------|
A|0---------------0---------------|0---------------0---------------------|
E|----------3-1-------------3-1---|----------3-1-----------------0-0-----|

Post-Chorus2
G|--------------------------------|--------------------------------|
D|--------------------------------|--------------------------------|
A|--------------------------------|---------------10------10-8-7-5-|
E|--------------------------------|--------------------------------|

G|--------------------------------|--------------------9-----------|
D|--------------------------------|------------------9---9---------|
A|--------3---------------0-------|----3---5---7-7-----------7-7---|
E|1---------------3---------------|1--1----------------------------|

Verse3       
G|-----14----9h10p9---------12-----9h10p9--|-----14---7-7h9p7-------12----9h10p9--|
D|---14------------10--------------------10|---14-------------------------------10|
A|12-----------------10--------------------|12----------------10------------------|
E|-----------------------------------------|--------------------------------------|
                               
G|-----14----9-----------12-----9h10p9--|-----14----7-7h9p7---------9h10p9--|
D|---14----------10-------------------10|---14----------------------------10|
A|12----------------10------------------|12----------------10---------------|
E|--------------------------------------|-----------------------------------|

G|--------------------------------|--------------------------------|
D|7-------------------------------|------------------------------55|
A|--------------------------------|--------------------------------|
E|--------------------------------|--------------------------------|

G|--------------------------------|--------------------------------|
D|7-----7710--------------7-------|7-----7710--------------7-------|
A|---------------10---------------|---------------10-----------7---|
E|--------------------------------|--------------------------------|

G|--------------------------------|--------------------------------|
D|7-------------------------------|--------------------------------|
A|--------------------------------|--------------------------------|
E|--------------------------------|--------------------------------|

Bridge
G|----2-2-----2-2-----2-2---------|----2-2-----2-2-----2-2---------|
D|--------------------------------|--------------------------------|
A|0-0-----0-0-----0-0-------------|0-0-----0-0-----0-0-------------|
E|------------------------1-1-3-3-|------------------------1-1-3-3-|

G|------------------------------4--|---------------------------------4-|
D|----10------10------10-----------|----7-10-----7-10-----7-10---------|
A|0-0-----0-0-----0-0--------------|0-0------0-0------0-0--------------|
E|------------------------1-1-3----|---------------------------0-0-3---|

G|------9--------------------------------------------------------|
D|----9---9--------------------14-14-14-14-14-14-----------------|
A|----------7-7-12-12-11-11-11-------------------7---5---3---2---|
E|0-0------------------------------------------------------------|

G|--245--------------------------------|------------------------------9---|
D|------------------------------10p9p7-|--710-7---------------------9-----|
A|0-----203-33--3-10-10107-10-0--------|0------10-------------------------|
E|------------3------------------------|----------8-8-8-8-0-0-0-0-0-------|

G|-----------------------------------|--245-42------------------------||
D|----------------------------10p9p7-|--------------------------------||
A|0-0-0-0-3-3-3-3---------0-0--------|0-------3-3-3-3---------7-------||
E|----------------3-3-3-3------------|----------------0-0-0-0---------||

Verse4
G|---------------------10-9-7----7--------|------------9-------------------|
D|7-10107-10-12-10-9-7--------10---9-9-10-|----------9---9-------------7---|
A|----------------------------------------|--------7-------0-0-0-0-0-0---7-|
E|----------------------------------------|0-0-0-0-------------------------|
							  
G|---------------------1010997----7--------|----------------||
D|7-10107-10-12-10-9-7---------10---9-9-10-|----------------||
A|-----------------------------------------|---------------/||
E|-----------------------------------------|0---0---0---0---||

Outro
G|-------------------------------------|-----------------------------------|
D|--------------------------15-12------|-----------------------------------|
A|12----12--------12----12-------12----|12--------12-----12----------------|
E|--------12----12--------10-----------|--12----12-----12------------------|




| /  slide up
| \  slide down
| h  hammer-on
| p  pull-off
| ~  vibrato
| +  harmonic
| x  Mute note
===============================================================================