Streetlight Manifesto - Everything Went Numb Chords & Tabs

 

Everything Went Numb Chords & Tabs

Streetlight Manifesto Chords & Tabs

Version: 1 Type: Tab 0 ratings
1 star 2 stars 3 stars 4 stars 5 stars
comments

Everything Went Numb Tab

SONG: EVERYTHING WENT NUMB
ARTIST: STREETLIGHT MANIFESTO


INTRO/OUTRO (after saxophones)
3-3-3-4-6-3-3-3-3-4-3-3--3-3-3-4-6-3--4-6-4-3--|
4-4-4-4-6-3-4-4-4-4-3-4--4-4-4-4-6-3--4-6-4-3--|
5-5-5-5-7-4-5-5-5-5-4-5--5-5-5-5-7-4--5-7-5-4--|
5-5-5-6-8-5-5-5-5-6-5-5--5-5-5-6-8-5--6/8\\6-5-|
3-3-3-6-8-5-3-3-3-6-5-3--3-3-3-6-8-5--6/8\\6-5-|
------4-6-3-------4-3----------4-6-3--4/6\\4-3-|


VERSE

3--3--4-----1--3--4--3---------|
4--3--4--8--1--4--4--3---------|
5--4--5--8--2--5--5--4---------|        x2
5--5--6--8--3--5--6--5---------|
3--5--6--6--3--3--6--5---------|
---3--4-----1-----4--3---------|

PRE/POST CHORUS

3--6--4--3---------|
4--6--4--3---------|
5--6--5--4---------|        x4
5--8--6--5---------|
3--8--6--5---------|
---6--4--3---------|

CHORUS

3-4---6--------|
4-4-8-6--------|
5-5-8-7--------|
5-6-8-8--------|       x4
3-6-6-8--------|
--4---6--------|


Play pre/post chorus 3 times and end on:

3-3-3
4-3-4
5-4-5
5-5-5
3-5-3
--3--


PLAY VERSE

"right and wrong..."


3-6-4-3-|
4-6-4-3-|
5-7-5-4-|
5-8-6-5-|
3-8-6-5-|
--6-4-3-|


"na na na na..."

[ Tab from: http://www.guitartabs.cc/tabs/s/streetlight_manifesto/everything_went_numb_tab.html ]
--3---6---4---3----3---6--4-4-4-3-|
--4---6---4---3----4---6--4-4-4-3-|
--5---7---5---4----5---7--5-5-5-4-|
--5---8---6---5----5---8--6-6-6-5-|
3-----8---6---5--3-----8--6-6-6-5-|
----6---4---3--------6-6--4-4-4-3-|


After trumpets and saxophones do their pickup:

3-3-3-3-3-|
4-3-4-3-4-|
5-4-5-4-5-|
5-5-5-5-5-|
3-5-3-5-3-|
--3---3---|

------------------------------------|
------------------------------------|
5-----8---5-----55----88----5---8---|
5-5-6-8-3-5-6-8-55-66-88-88-5-6-8-8-|
3-5-6-6-3-3-6-8-33-66-66-88-3-6-6-8-|
--3-4---1---4-6----44----66---4---6-|

"na na na na na na..."

3-----4----------|
4-----4--8-8-8-8-|
5-----5--8-8-8-8-|
5-----6--8-8-8-8-|
3-----6--6-6-6-6-|
------4----------|


3-6-4-3--3-6-4-3--3-3-3-|
4-6-4-3--4-6-4-3--4-3-4-|
5-6-5-4--5-6-5-4--5-4-5-|
5-8-6-5--5-8-6-5--5-5-5-|
3-8-6-5--3-8-6-5--3-5-3-|
--6-4-3----6-4-3----3---|

(after instrumentals do their part)


3-3------4-4--3-3-3-3--------   3----6----4-  ---3--3-3-3----|
4-4--33--4-4--3-3-4-4--33----4----6----4---  -3--4-3-4-------|
5-5--33--5-5--4-4-5-5--33----5----7----5----  4--5-4-5-------|
5-5--33--6-6--5-5-5-5--33----5----8----6----  5--5-5-5-------|
3-3--11--6-6--5-5-3-3--11--   3------8----6----5--3-5-3------|
---   ------4-4--3-3-------------- ------- 6----4----3-------|  

PLAY CHORUS


PLAY PRE/POST CHORUS (with 2nd ending)


PLAY INTRO/OUTRO
Comments