Streetlight Manifesto - A Better Place A Better Time Chords & Tabs

 

A Better Place A Better Time Chords & Tabs

Streetlight Manifesto Chords & Tabs

Version: 2 Type: Tab 0 ratings
1 star 2 stars 3 stars 4 stars 5 stars
comments

A Better Place A Better Time Tab

   
STREETLIGHT MANIFESTO
A Better Place, A Better Time.

tab by Kevin Wilson
this is my first guitar tab EVER, so take it easy on me
I've only been playing guitar for a whole 3 weeks, but I 
play bass normally...
email me questions, comments, corrections:
soppychunk@gmail.com
AIM - rajaginstmachine


VERSE  (i'm sure you can figure out the rythym)
"So she wakes up..." 
PALM MUTED 
   G    B    E    C                      G   B   C   D
e|------------------|------------------|-----------------|-----------------|
B|------------------|------------------|-----------------|-----------------|
G|------4---------5-|------4---------5-|-----4---5---7---|-----4---5---7---|
D|-5----4----2----5-|-5----4----2----5-|-5---4---5---7---|-5---4---5---7---| X2
A|-5----2----2----3-|-5----2----2----3-|-5---2---3---5---|-5---2---3---5---|
E|-3---------0------|-3---------0------|-3---------------|-3---------------|

"But don't take your life..."
|---------------------------|---------------------------|----------|--------|
|---------------------------|---------------------------|----------|--------|
|-5---5-5---4-------------4-|-5---5-5---4---------------|-------4--|-5----7-|
|-5---5-5---4---5---5-5---4-|-5---5-5---4---5---5-5---4-|-2-----4--|-5----7-|
|-3---3-3---2---5---5-5---2-|-3---3-3---2---5---5-5---4-|-2-----2--|-3----5-|
|---------------3---3-3-----|---------------3---3-3---2-|-0--------|--------|

CHORUS
"And when you wake up"
|-------------------|
|-------------------|
|------7---9---5/7--|
|--5---7---9---5/7--|
|--5---5---7---3/5--|
|--3----------------|
[ Tab from: http://www.guitartabs.cc/tabs/s/streetlight_manifesto/a_better_place_a_better_time_tab_ver_2.html ]
During the horn part following the first chorus, play the first measure of the verse
over and over until the lyrics come back in. 
"Looking through the paper today..."
  G    B    E    C                         
e|------------------|------------------|  
B|------------------|------------------|   
G|------4---------5-|------4---------5-|   
D|-5----4----2----5-|-5----4----2----5-|    
A|-5----2----2----3-|-5----2----2----3-|   
E|-3---------0------|-3---------0------|   

|-----------------|-----------------|
|-----------------|-----------------|
|-----4---5---7---|-----4---5---7---|
|-5---4---5---7---|-5---4---5---7---| 2X
|-5---2---3---5---|-5---2---3---5---|
|-3---------------|-3---------------|

|---------------|----------------|
|---------------|----------------|
|-------------5-|-----4---5---7--|
|-5---4---2---5-|-5---4---5---7--|
|-5---4---2---3-|-5---2---3---5--|
|-3---2---0-----|-3--------------|

"to standby, you've got to draw a line..."
just play the chorus palm muted until the horn part

HORNS PLAYING/CHORUS 

Play these two lines 3x
|-----------------|-----------------|
|-----------------|-----------------|
|-----4---5---7---|-----4---5---7---|
|-5---4---5---7---|-5---4---5---7---|
|-5---2---3---5---|-5---2---3---5---|
|-3---------------|-3---------------|

|---------------|----------------|
|---------------|----------------|
|-------------5-|-----4---5---7--|
|-5---4---2---5-|-5---4---5---7--|
|-5---4---2---3-|-5---2---3---5--|
|-3---2---0-----|-3--------------|


I'm too lazy to tab the rest out, but it pretty much uses one of those chord progressions.
I'm sure you can figure it out.
Comments