Straylight Run - Your Name Here Sunrise Highway Chords & Tabs

 

Your Name Here Sunrise Highway Chords & Tabs

Straylight Run Chords & Tabs

Version: 2 Type: Tab 0 ratings
1 star 2 stars 3 stars 4 stars 5 stars
comments

Your Name Here Sunrise Highway Tab

   
Tabbed by: my guitar teacher

Tuning: Standard

listen for Strumming! i think its (down,down,down,up,up,down,down,up,down)not for chorus.

Intro/Verse:
G-Em-C-C

Pre-Chorus:
D-C
D-C
Am-C-D

Chorus:
G-D/F#-Em-C

Solo: listen for the vibrato, slides & whatnot, i didnt mark them all down

e|--3--5-3------3-5---7--------7----10--------12-10-8-10------7------10----|
B|---------0-3-----------8-10----8------8----------------8-10---10-8----8--|
G|-----------------------------------------9-----------------------------9-|
D|-------------------------------------------------------------------------|
A|-------------------------------------------------------------------------|
E|-------------------------------------------------------------------------|
[ Tab from: http://www.guitartabs.cc/tabs/s/straylight_run/your_name_here_sunrise_highway_tab_ver_2.html ]
e|--12-10-8-10------7------10-------12-10-8-10------7------10--------------|
B|-------------8-10---10-8----8----------------8-10---10-8----8-- 7-8-10---|
G|------------------------------9-------------------------------9----------|
D|-------------------------------------------------------------------------|
A|-------------------------------------------------------------------------|
E|-------------------------------------------------------------------------|

e|------------------7-8-10-----10----10-----------12-14-15\17-15-----14----|
B|--8-7------7-8-10---------12----12-----12-13-15-----------------15-------|
G|-------7-9---------------------------------------------------------------|
D|-------------------------------------------------------------------------|
A|-------------------------------------------------------------------------|
E|-------------------------------------------------------------------------|

e|-----------12-14-15-17\19-17-15-14-10~-7~--------------------------------|
B|--12-13-15--------------------------------10~-8~-------------------------|
G|-------------------------------------------------------------------------|
D|-------------------------------------------------------------------------|
A|-------------------------------------------------------------------------|
E|-------------------------------------------------------------------------|

amazing band. solo gets tricky at the end. rate? pukesthedayaway@yahoo.com if need be.
Comments