Straylight Run - Tool Sheds And Hot Tubs Chords & Tabs

 

Tool Sheds And Hot Tubs Chords & Tabs

Straylight Run Chords & Tabs

Version: 2 Type: Tab 0 ratings
1 star 2 stars 3 stars 4 stars 5 stars
comments

Tool Sheds And Hot Tubs Tab

   
STRAYLIGHT RUN
Tool Sheds and Hot Tubs

Tuning: Standard E - Capo fret 2

Sounds like parts could be two guitars but can be played as one.  Listen to the song to
get the timing and the muted style down.

INTRO:

e|--0-0-0----3--------0---------0-0-2-----------|
B|--0----3p1-0-0-0----1-1-1p0h3-1---3-----------|
G|--0--------0----2p0-0---------0---2-----------|
D|--2--------0--------2---------2---0----[X2]---|
A|--2--------2--------3---------3---x-----------|
E|--0--------3--------x---------x---x-----------|

VERSE:

e|--0----3----0----2----------------------------|
B|--0----0----1----3----------------------------|
G|--0----0----0----2----------------------------|
D|--2----0----2----0----[X2]--------------------|
A|--2----2----3----x----------------------------|
E|--0----3----x----x----------------------------|

PRECHORUS:
[ Tab from: http://www.guitartabs.cc/tabs/s/straylight_run/tool_sheds_and_hot_tubs_tab_ver_2.html ]
e|--0----------------3--------------------------|
B|--1----------------0--------------------------|
G|--2-2--0----0--2---0--------------0--2--------|
D|--2--2--/4-4-0--0--0-------0h2h4-4-0--0-------|
A|--0---0-0-0---0----2----2h3-----0---0---------|
E|--x----------------3-3h5----------------------|

e|--0----------------3----------------------2---|
B|--1----------------0----------------------3---|
G|--2-2--0----0--2---0--------------0--2----2---|
D|--2--2--/4-4-0--0--0-------0h2h4-4-0--0-0-0---|
A|--0---0-0-0---0----2----2h3-----0---0-----x---|
E|--x----------------3-3h5------------------x---|

CHORUS:

e|--0----3----0----3----0----2----3-------------|
B|--1----0----1----0----1----3----0-------------|
G|--0----0----0----0----0----2----0-------------|
D|--2----0----2----0----2----0----0----[X2]-----|
A|--3----2----3----2----3----x----2-------------|
E|--x----3----x----3----x----x----3-------------|

| /  slide up
| \  slide down
| h  hammer-on
| p  pull-off
Comments