Straylight Run - Tool Sheds And Hot Tubs Chords & Tabs

 

Tool Sheds And Hot Tubs Chords & Tabs

Straylight Run Chords & Tabs

Version: 1 Type: Bass Tab 0 ratings
1 star 2 stars 3 stars 4 stars 5 stars
comments

Tool Sheds And Hot Tubs Bass Tab

Artist: Straylight Run
Song: Tool Sheds and Hot Tubs
Album: Straylight Run
Tabber: Calum (afirock74@hotmail.com)

Intro/Verse:
G|-----------------------------------------------------|
D|-----------------------------------------------------|
A|------------3-3-3-3-3--5-5-5-5-5---------------------|
E|--5-5-5-5-5----------------------1-1-1-1--3-3-3-3----|

Pre-chorus:
G|----------------|
D|----------------|
A|-5---3---5------|
E|-------------3--|
[ Tab from: http://www.guitartabs.cc/tabs/s/straylight_run/tool_sheds_and_hot_tubs_btab.html ]
Chorus:
G|-----------------------------------------------------------|
D|--------------------------------------------------5-3-2----|
A|---------3-3/5-3---------3-3/5-3---------5-5-5--3-------3--|
E|-1-1-1-1---------1-1-1-1---------1-1-1-1-------------------|

Verse 2:
G|------------------------------------------------------|
D|-------7-5-3------------------------------------------|
A|-------------3-3-3-3-3--5-5-5-5-5---------------------|
E|--5-5-5---------------------------1-1-1-1--3-3-3-3----|
Comments