Straylight Run - Sympathy For The Martyr Chords & Tabs

 

Sympathy For The Martyr Chords & Tabs

Straylight Run Chords & Tabs

Version: 1 Type: Tab 0 ratings
1 star 2 stars 3 stars 4 stars 5 stars
comments

Sympathy For The Martyr Tab

   
Straylight Run
Sympathy for the Martyr

This is all of the song, i tabbed it myself and believe it's accurate.

Intro/Verse- with up and down strokes

  E                   A
e-------------------------------------------|
b---------------------2-2-2-2-2-2-2-2-2-2---|
g-1-1-1-1-1-1-1-1-1-1-2-2-2-2-2-2-2-2-2-2---|
d-2-2-2-2-2-2-2-2-2-2-2-2-2-2-2-2-2-2-2-2---|
a-2-2-2-2-2-2-2-2-2-2-0-0-0-0-0-0-0-0-0-0---|
e-------------------------------------------|

Pre-chorus-listen to song...this is not in the right order
[ Tab from: http://www.guitartabs.cc/tabs/s/straylight_run/sympathy_for_the_martyr_tab.html ]
Gadd9   G   A     A5   B -end on this chord
e-3-3-3-3------------|----------------|
b-3-3-3-0---2-2-2-0--|-4--------------|
g-0-0-0-0---2-2-2-2--|-4--------------|
d-0-0-0-0---2-2-2-2--|-4--------------|
a-2-2-2-2---0-0-0-0--|-2--------------|
e-3-3-3-3------------|----------------|

Chorus-each played eight times... * on the 4th or 8th strum

          *
e-4-4-5-0-0----------------------|
b-5-4-5-0-0----------------------|
g-6-5-6-1-2----------------------|
d-6-6-7-2-2----------------------|
a-4-6-7-2-2----------------------|
e---4-5-0-0----------------------|

Bridge
   (3x)
e------------------------|----------4-4-4-4-4-4-4-4----|
b------------------------|----------4-4-4-4-4-4-4-4----|
g-2-2-----1-1-2-1-1-2-1-1|-2-2------5-5-5-5-5-5-5-5----|
d-2-2-4-4-2-2-2-2-2-2-2-2|-2-2-4-4--6-6-6-6-6-6-6-6----|
a-0-0-4-4-2-2-2-2-2-2-2-2|-0-0-4-4--6-6-6-6-6-6-6-6----|
e-----2-2-0-0-0-0-0-0-0-0|-----2-2--4-4-4-4-4-4-4-4----|

Chorus to fade
Comments