Straylight Run - Mistakes We Knew We Were Making Chords & Tabs

 

Mistakes We Knew We Were Making Chords & Tabs

Straylight Run Chords & Tabs

Version: 1 Type: Tab 0 ratings
1 star 2 stars 3 stars 4 stars 5 stars
comments

Mistakes We Knew We Were Making Tab

Straylight Run 
Mistakes we knew we were making

                         ::VERSE::
e|-----------------------------------------------------------------|
B|-----------8-6---6--------------------6p4-3----------------------|
G|---6~----------8----------------------------5--------------------|
D|---4~-------------------------4~---------------------------------|
A|---5~-------------------------3~---------------------------------|
E|---3~-------------------------5~---------------------------------|

                         ::PRECHORUS::
e|---0--------|---0-------|---0--------|---0~--------------|
B|---0--------|---0-------|---0--------|---0~--------------|
G|---0--------|---0-------|---0--------|---0~--------------|
D|---0--(8x)--|---0--(8x)-|---0--(8x)--|---0~--------------|
A|---5--------|---7-------|---9--------|---12~-------------|
E|---3--------|---5-------|---7--------|---10~-------------|
[ Tab from: http://www.guitartabs.cc/tabs/s/straylight_run/mistakes_we_knew_we_were_making_tab.html ]
            ::PRECHORUS LEAD::
e|----------------------------------------------|
B|---7---7---7---7---5---5---5---5--------------|
G|-----9---9---9---9---7---7---7---7------------|
D|----------------------------------------------|
A|----------------------------------------------|
E|----------------------------------------------|

                         ::CHORUS::
e|------------------------------------------------------------------|
B|------------------------------------------------------------------|
G|------------------------------------------------------------------|
D|---5---------7-----------9--------12------------------------------|
A|---5--(8x)---7--(8x)-----9-(8x)---12-(8x)-------------------------|
E|---3---------5-----------7--------10------------------------------|

                         ::OUTRO::
e|-----------------------------------------------------------------|
B|--------------------8-7-5----------------------------------------|
G|---6~-----------5-9-------9-8-5-4--------------------------------|
D|---4~---4~----7--------------------------------------------------|
A|---5~---3~-------------------------------------------------------|
E|---3~---5~-------------------------------------------------------|

Pretty easy song have fun!
Comments