Straylight Run - Its For The Best Chords & Tabs

 

Its For The Best Chords & Tabs

Straylight Run Chords & Tabs

Version: 1 Type: Tab 0 ratings
1 star 2 stars 3 stars 4 stars 5 stars
comments

Its For The Best Tab

-------------------------------------------------------------------------------
			     It's for the best - Straylight Run
-------------------------------------------------------------------------------
Tabbed by: Evan Reyes
Email: evanreyes2951@yahoo.com

Tuning: Standard (EADGBe)

This is the whole song, you can figure out the rhythm:
[ Tab from: http://www.guitartabs.cc/tabs/s/straylight_run/its_for_the_best_tab.html ]
e|---------------------------------------------------------------------------|
B|---------------------------------------------------------------------------|
G|---7-------9---------------------------------------------------------------|
D|---7---4---9---7-----------------------------------------------------------|
A|---5---4---7---7-----------------------------------------------------------|
E|-------2-------5-----------------------------------------------------------|
Comments