Straylight Run - Its For The Best Chords & Tabs

 

Its For The Best Chords & Tabs

Straylight Run Chords & Tabs

Version: 1 Type: Bass Tab 0 ratings
1 star 2 stars 3 stars 4 stars 5 stars
comments

Its For The Best Bass Tab

Artist: Straylight Run
Song: It's For The Best
Album: Straylight Run
Tabber: Calum (afirock74@hotmail.com)
[ Tab from: http://www.guitartabs.cc/tabs/s/straylight_run/its_for_the_best_btab.html ]
Mainly Whole Song
G|----6---6h7p6----------------------------------------|
D|-0-0--0------7-0--4-4-4/6/7----------------7/9/7-----|
A|---------------------------------7-7---0-0------7-0--|
E|-----------------------------0000-0-0----------------|

Piano Solo
G|----6---6h7p6-------------9---------14/16/14------|
D|-0-0--0------7-0--4------9-9-----------------14-0-|
A|------------------------7---7--0-0----------------|
E|----------------------00--------------------------|
Comments