Straylight Run - Existentialism On Prom Night Chords & Tabs

 

Existentialism On Prom Night Chords & Tabs

Straylight Run Chords & Tabs

Version: 4 Type: Tab 0 ratings
1 star 2 stars 3 stars 4 stars 5 stars
comments

Existentialism On Prom Night Tab

   
The intro for Existentialism on Prom Night is just the chords split up. (F#m, 
E, and A.)
[ Tab from: http://www.guitartabs.cc/tabs/s/straylight_run/existentialism_on_prom_night_tab_ver_4.html ]
E----------------------------------------------------|
B----------------------------------------------------|
G--------2------------2-----------2-----------1------|
D------4---4--------0---0-------2---2-------2---2----|
A----4-------4----0-------0---2-------2---2------2---|
E--2------------0-----------0-----------0------------|

   F#m,         Dsus2,        Esus4,       E
Repeat as many times as needed, and the piano part is

E-------0-0---------------------|
B-2---3-----3-2-2---0-----------|
G---2-------------2---1---------|
D-------------------------------|
A-------------------------------|
E-------------------------------|

That's all! Comments please email hockey.shorty@gmail.com
Comments