Straylight Run - Existentialism On Prom Night Chords & Tabs

 

Existentialism On Prom Night Chords & Tabs

Straylight Run Chords & Tabs

Version: 2 Type: Tab 0 ratings
1 star 2 stars 3 stars 4 stars 5 stars
comments

Existentialism On Prom Night Tab

e|-------------------------------------------------------------------------|
B|-------------------------------------------------------------------------|
G|-----------2------------------2---------------2--------------1-----------|
D|--------4-----4------------0----0-----------2---2---------2-----2--------|
A|-----4-----------4------0---------0------2---------2----2----------2-----|
D|--4------------------0----------------2---------------2------------------|

(piano for guitar)
e|-------------------------------------------------------------------------|
B|-------------------------------------------------------------------------|
G|--6-7-9-9-7/6-6-4--------------------------------------------------------|
D|-------------------6-----------------------------------------------------|
A|-------------------------------------------------------------------------|
D|-------------------------------------------------------------------------|
[ Tab from: http://www.guitartabs.cc/tabs/s/straylight_run/existentialism_on_prom_night_tab_ver_2.html ]
Verse/Chorus
e|-------------------------------------------------------------------------|
B|---------------------------3-3-3-3-3-3-----------------------------------|
G|--2---2--2--1--2--2--2--1--2-2-2-2-2-2-----2-2-2-2-2---------------------|
D|--4---0--2--2--4--0--2--2--0-0-0-0-0-0-----2-2-2-2-2---------------------|
A|--4---0--2--2--4--0--2--2------------------0-0-0-0-0---------------------|
E|--4---0--2--2--4--0--2--2------------------------------------------------|

Sing like you think no ones listening
e|-------------------------------------------------------------------------|
B|--3-3-3-3-3-3-3----------------------------------------------------------|
G|--2-2-2-2-2-2-2---2-2-2-2-2-2-2-2----------------------------------------|
D|--0-0-0-0-0-0-0---2-2-2-2-2-2-2-2----------------------------------------|
A|------------------0-0-0-0-0-0-0-0----------------------------------------|
E|-------------------------------------------------------------------------|

Outro
e|-------------------------------------------------------------------------|
B|----------------------------------------------------------------------2--|
G|-----------2----------------2-------------2--------------1------------2--|
D|--------4-----4----------0----0---------2---2---------2-----2-----x2--2--|
A|-----4-----------4----0---------0----2---------2----2----------2------0--|
D|--4----------------0--------------2---------------2----------------------|
Comments