Straylight Run - Existentialism On Prom Night Chords & Tabs

 

Existentialism On Prom Night Chords & Tabs

Straylight Run Chords & Tabs

Version: 1 Type: Tab 0 ratings
1 star 2 stars 3 stars 4 stars 5 stars
comments

Existentialism On Prom Night Tab

Straylight Run - Existentialism on Prom Night

Piano part
e|-----------------------------------| 
B|-----------------------------------| 
G|-----7-------3------3-------3------| 
D|----5-5-----1-1----3-3-----3-3-----| 
A|---5---5---1---1--3---3---3---3----| 
D|--5-------1------3-------3---------| 

2nd Piano part 
e|---------------------------------| 
B|---------------------------------| 
G|--7--9-10--10-9-8-7--5-----------| 
D|--7--9-10--10-9-8-7--5-----------| 
A|--5--7-8---8--7-6-5--3-----------| 
D|---------------------------------| 
(here you can play only the a string note, sounds a little hollow tho.)

[ Tab from: http://www.guitartabs.cc/tabs/s/straylight_run/existentialism_on_prom_night_tab.html ]
Verse and Bridge
e|---------------------------------| 
B|---------------------------------| 
G|--7------3------3------3---------| 
D|--5------1------3------3---------| 
A|--5------1------3------3---------| 
D|--5------1------3------3---------| 

Chorus
e|---------------------------------| 
B|---------------------------------| 
G|--3---3---3---3---3---3---3---3--| 
D|--1---1---1---1---3---3---3---3--| 
A|--1---1---1---1---1---1---1---1--| 
D|--1---1---1---1------------------| 


well thats all :) lol

enjoy, the bands site is straylightrun.com so go look at it!

my email addy is 
carpe_saxum@hotmail.com if you need anything :)

laterzzz!

myke.
Comments