Stray Cats - Rock This Town Chords & Tabs

 

Rock This Town Chords & Tabs

Stray Cats Chords & Tabs

Version: 1 Type: Tab 2 ratings
1 star 2 stars 3 stars 4 stars 5 stars
comments

Rock This Town Tab

#----------------------------------PLEASE NOTE---------------------------------#
#This file is the author's own work and represents their interpretation of the #
#song. You may only use this file for private study, scholarship, or research. #
#------------------------------------------------------------------------------#

Stray Cats

Rock This Town

by Brian S.

Intro :
e--2~~--2-2-2-2--2--2--2-2-2-2-2-2-2-2---------------|
b--3~~--3-3-3-3--3--3--3-3-3-3-3-3-3-3---------------|
g--2~~--2-2-2-2--2--2--2-2-2-2-2-2-2-2---------------|
d--0~~--0---0-0--0-------0---0---0-0-0---------------|
a--0~~----0---------0--0-0---0---0-------------------|
e----------------------------------------------------|

Repeated Throughout song
Bassline/Guitar part :
e------------------------------------|
b------------------------------------|
g------------------------------------|
d------4-4-5-5-6-6-7-7-6-6-5-5-4-4---|
a--5-5-------------------------------|
e------------------------------------|


e-----------------------------------------------------|
b-----------------------------------------------------|
g--7--7-------7--7-----7--7-------7--7-------7--7-----|
d--7--7---9---7--7--9--7--7---9---7--7---9---7--7-----|
a--5--5---5---5--5--5--5--5---5---5--5---5---5--5-----|
e-----------------------------------------------------|
 Well my baby and me went out late saturday night...
[ Tab from: http://www.guitartabs.cc/tabs/s/stray_cats/rock_this_town_tab.html ]
e-----------------------------------------------------|
b-----------------------------------------------------|
g--7--7-------7--7-----7--7-------7--7-------7--7-----|
d--7--7---9---7--7--9--7--7---9---7--7---9---7--7-----|
a--5--5---5---5--5--5--5--5---5---5--5---5---5--5-----|
e-----------------------------------------------------|
          				    I had my hair...

	
e------------------------------8------10--12\---------|
b-----------------------------------------------------|
g-7--7-------7-------------/7------/9-----12\---------|
d-7--7---9---7--7-------------------------------------|
a-5--5---5---5--5-------------------------------------|
e-----------------------------------------------------|
 baby she looked so right


Solo :
e--/10---10-10--10-13~~-15b~~-r15-13------------------|
b--/10---10-10--10-------------------15---------------|
g---------------------------------------13-12-10-8~~--|
d-----------------------------------------------------|
a-----------------------------------------------------|
e-----------------------------------------------------|


e-10-13p10----13--------------------------13-----13---|
b----------12----12-10----10-----11---13b----13b------|
g----------------------12-----------------------------|
d-----------------------------10----------------------|
a-----------------------------------------------------|
e-----------------------------------------------------|


e---13b-13p10---------------------------------------------------|
b-------------13p12p10------------------------------------------|
g----------------------12/--------------------------------------|
d-----------------------------------4-4-5-5-6-6-7-7-6-6-5-5-4-4-|
a-----------------------------5-5-5-----------------------------|
e---------------------------------------------------------------|
Comments