Stray Cats - I Wont Stand In Your Way Anymore Chords & Tabs

 

I Wont Stand In Your Way Anymore Chords & Tabs

Stray Cats Chords & Tabs

Version: 1 Type: Tab 0 ratings
1 star 2 stars 3 stars 4 stars 5 stars
comments

I Wont Stand In Your Way Anymore Tab

Stray Cats
I Won't Stand in Your Way Anymore (Solo)

Tabbed by: Loui Red

no one ever seems to tab out solo's. they always leave them out. so here you go, i
tabbed out this solo since no one else will. i'm pretty sure that brian play's with
a cappo on this song. but i tabbed it w/o one. in standard E tuning. a lot of stuff
in this solo is off beat. so i tried to help you out with the timing, but it me be
more confusing. so just ignore it if it bothers you and use your ear. that's the best
way to get that down.

/ = Slide
b = Bend half a step
p = Pull off


Solo: (2:01)

Timeing:           1     *     *     *
e------------------------------------------|
B-6/8-6------4---6/8-6-------6/8-6---------|
G-------7p5-3----------8-7---------8-6-----|
D-6/8-6----------6/8-6-5-5---6/8-6-5-5-----|
A------------------------------------------|
E------------------------------------------|
[ Tab from: http://www.guitartabs.cc/tabs/s/stray_cats/i_wont_stand_in_your_way_anymore_tab.html ]
  1     *     *      *     1     *        *       *       *
e-----------6/8--6--------------------------------------------|
B------------------8/6---4-9----------------------------------|
G-----------6/8--6-------------------8-10-10b---8----8------8-|
D------------------8/6---5-10---------------------10---10-9---|
A-------------------------------------------------------------|
E-------------------------------------------------------------|

    1      *     *      *     1       *     *        *     *
e--------------------------------------------------6/8-------6---|
B-9/11-9-9-9----------------------6/8----------6/8-------------8-|
G-8/10-8-8-8------------8-------------7------------6/8-------6---|
D-------------------9-8-----------6/8-5--------6/8-------------8-|
A----------------------------------------------------------------|
E----------------------------------------------------------------|

    1     *     *      *        1       *     *       *
e------------------------------------10/8---6-11-----------13/15-|
B-8/6-----4-----------------6/8-6--------------------------------|
G---------------5----7-8-------------10/8---7-12-----------13/15-|
D-8/6-----5---8------5-6----6/8-6--------------------------------|
A---------------8------------------------------------------------|
E----------------------------------------------------------------|

  1              *             *     *     1
e-11----13/15-11------13/15-11-------11-9--8-6-4-3-1-----|
B----------------12------------11--------------------4-2-|
G-12----13/15-12-13---13/15-12-12----12-10-8-6-5-3-1-----|
D----------------------------------------------------5-3-|
A--------------------------------------------------------|
E--------------------------------------------------------|

Ends: (2:33)
Comments