Strawhorse - Fishbowl Chords & Tabs

 

Fishbowl Chords & Tabs

Strawhorse Chords & Tabs

Version: 1 Type: Tab 0 ratings
1 star 2 stars 3 stars 4 stars 5 stars
comments

Fishbowl Tab

Fishbowl

By Strawhorse


	This song is off the ATV Off Road Fury video game on ps2.  They have 2 songs on there Fishbowl and Atlanta and both of them rule!  There are no Strawhorse tabs up here so I figured I would put this song on here.  I am not sure if they are exactly correct but they are close.  This is just to get an idea of how it goes.  This is my first tab sorry if its confusing.

Tuning: Drop all strings down a whole step then Low e to C#

Intro:  Distortion
[ Tab from: http://www.guitartabs.cc/tabs/s/strawhorse/fishbowl_tab.html ]
|---------------------
|---------------------
|----7--5-------------
|-0--7--5-------------
|-0--5--3-------------
|-0--------3h4h5p3----

Listen to the song for the rythmn


Pre verse and verse:

|--------------------------
|--------------------------   
|--------------------------
|-0-0-0-0-1-0-0-0-0-1------
|-0-0-0-0-1-0-0-0-0-1------
|-0-0-0-0-1-0-0-0-0-1------
pm.......   pm.....

Chorus:

|------------------
|------------------
|-7--------5-------
|-7--5--3--5--1----
|-5--5--3--3--1----
|----5--3-----1----

   This isnt an exact tab its just something to start with.  I cant figure out the little fill ins in the pre verse and verse so if u figure them out email me.

Steve
 
Steve8093@yahoo.com
Comments