Strawhorse - Atlanta Chords & Tabs

 

Atlanta Chords & Tabs

Strawhorse Chords & Tabs

Version: 1 Type: Tab 0 ratings
1 star 2 stars 3 stars 4 stars 5 stars
comments

Atlanta Tab

   
Tabbed by: Earl F


Tuning: Drop C (C G C F A D)


No strawhorse tabs were available for atalanta, so I decided to make one.

Enjoy.



Intro riff 1 clean w/ wah
D|---------------------------------------------------------------------------|
A|---------------------------------------------------------------------------|
F|---------------------------------------------------------------------------|
C|---------------------------------------------------------------------------|
G|--------------3------------------------------------------------------------|
C|-0--3---5--0-----0--3~--3--------------------------------------------------|


Intro riff 2 w/ distortion
D|-----------------|---------------------------------------------------------|
A|-----------------|---------------------------------------------------------|
F|--7---7---5--7-7-|5--7-7-7-------------------------------------------------|
C|--7---7---x--x-x-|x--x-x-x-------------------------------------------------|
G|--5---5---3--5-5-|3--5-5-5-------------------------------------------------|
C|-----------------|---------------------------------------------------------|
                       
                      ^
                    repeat x7 
                      
Verse riff 1
D|----------------------------------------------|----------------------------|
A|----------------------------------------------|----------------------------|
F|--5--------------5-----5----------------------|----------------------------|
C|--5--0--3--5--0--5--0--5--0-3--5-5-5h6--5--3--|-xxxxxxxxxxxx--5-3----------|
G|--3--0--3--5--0--3--0--3--0-3--5-5-5h6--5--3--|-xxxxxxxxxxxx--5-3----------|
C|-----0--3--5--0-----0-----0-3--5-5-5h6--5--3--|-xxxxxxxxxxxx--5-3----------|
                                                          
                                                             ^
                                                           repeat x2

[ Tab from: http://www.guitartabs.cc/tabs/s/strawhorse/atlanta_tab.html ]
Chorus
D|---------------------------------------------------------------------------|
A|---------------------------------------------------------------------------|
F|--777777----------555555---------------------------------------------------|
C|--777777--333333--555555--555555-------------------------------------------|
G|--555555--333333--333333--555555-------------------------------------------|
C|----------333333----------555555-------------------------------------------|
  Listen to the song for exact strumming



Play end of verse riff 1 again and then this:


Verse riff 2
D|----------------------------------------------|----------------------------|
A|----------------------------------------------|----------------------------|
F|--5--------------5-----5----------------------|----------------------------|
C|--5--0--3--5--0--5--0--5--0-3--5-5-5h6--5--3--|-00--000--000--0--5-3-------|
G|--3--0--3--5--0--3--0--3--0-3--5-5-5h6--5--3--|-00--000--000--0--5-3-------|
C|-----0--3--5--0-----0-----0-3--5-5-5h6--5--3--|-00--000--000--0--5-3-------|
                                                 p.m.............


Play chorus riff then:


If you use a lot of wah you can get this riff to match the one in the song.
Just mess with it til it sounds right.


Solo riff with distortion & wah
D|-----3-------3----3-----3--|-----3-----3-----------------------------------|
A|----3--3----3------3---3-3-|----3-3---3-3----------------------------------|
F|----------7----------------|-----------------------------------------------|
C|--5------------------5-----|--5-----5--------------------------------------|
G|----------------3----------|-----------------------------------------------|
C|---------------------------|-----------------------------------------------|
           ^                      etc............
         repeat x2


Here is the riff after the solo:

D|---------------------------------------------------------------------------|
A|---------------------------------------------------------------------------|
F|---------5555--7---------5555--7---------55555--7--------------------------|
C|--0--00--5555--7--0--00--5555--7--0--00--55555--7--------------------------|
G|--0--00--3333--5--0--00--3333--5--0--00--33333--5--------------------------|
C|--0--00-----------0--00-----------0--00------------------------------------|


Play the chorus one more time and the song ends.




Comments