Stratovarius - Winter Chords & Tabs

 

Winter Chords & Tabs

Stratovarius Chords & Tabs

Version: 1 Type: Tab 0 ratings
1 star 2 stars 3 stars 4 stars 5 stars
comments

Winter Tab

   
Location: Season of Change - http://www.sci.fi/~jnevala/stratovarius/

STRATOVARIUS - WINTER (From 4th Dimension)
Music & Words: Tolkki

Transcribed By: Niclas Buss (8.1.1999)

Tune Down 1/2 Step!

Please Mail Me If You Find Mistakes!

"Sitar Guitar Intro"
 
 Riff 1										   x6		    Riff 2
E------0--0-----------1--0--------------3--0-----------------------------0(--------------------|
B------------0--------------0--------3--------------1--0--------1--0---|-0)------|-------------|
G----------------------------------------------------------------------|-2(------|*------------|
D----2-------------2--------------2--------------2-----------3---------|-2)------|*-9--7-----9-|
A-0-------------0--------------0--------------0-----------0------------|-0(------|--7~----7--8~|
E-----------------------------------------------------------------------------------5~-------5~|
													    Dist.
				 		  x4		    x4
E----------------------------------------------------------------------------------------------|
B-------------------------|-------------|-------------|----------------------------------------|
G------------------------*|-Verse-2-----|-Chorus------|----------------------------------------|
D-7--9--7-----12--10--9--*|-------------|-------------|----------------------------------------|
A----4~----9---3~---------|-with-Riff-1-|-with-Riff-2-|-3-3-3-3-3---3-3-3-3-3--5----3-3-3-3-3--|
E----2~--------1~---------------------------------------1-1-1-1-1---1-1-1-1-1--3----1-1-1-1-1--|

				Guitar Solo
E------------------------15b(17)---15\----/13p10h13--12\---/12-10------------------------------|
B----------------------|------------------------------------------13-12------------------------|
G----------------------|--------------------------------------------------12-9-----------------|
D----------------------|--------------------------------------------------------12-10-9--------|
A-3-3-3-3-3---2-----5--|----------------------------------------------------------------10-----|
E-1-1-1-1-1---0-----3----------------------------------------------------------------------12\-|

E--------------------------------10-12-13---12-13-12-10-------13-12-10----------12-13-15-13-12-|
B-/12--13-12--13-12-10--10-12-13------------------------13-12----------13-12-10----------------|
G----------------------------------------------------------------------------------------------|
D----------------------------------------------------------------------------------------------|
A----------------------------------------------------------------------------------------------|
E----------------------------------------------------------------------------------------------|
[ Tab from: http://www.guitartabs.cc/tabs/s/stratovarius/winter_tab.html ]
E----------------------------------------------------------10-12-13-12-10-12-------------------|
B-15-13-12-10-12-10-------------------------------10-12-13-------------------13-12-10----------|
G-------------------12-10-9---------------9-10-12-------------------------------------12-10----|
D---------------------------12-10-9-10-12------------------------------------------------------|
A----------------------------------------------------------------------------------------------|
E----------------------------------------------------------------------------------------------|

E------------------------------------------------8---------------------------------------------|
B---8-10--10b(11)r10-8-------8-10--10b(11)r10--8-------8-10--10b(11)r10-8------8-10-11h13p11-10|
G-7--------------------7---7-------------------------7--------------------7--7-----------------|
D----------------------------------------------------------------------------------------------|
A----------------------------------------------------------------------------------------------|
E----------------------------------------------------------------------------------------------|

E---------------------------------------------------------------------------------------8------|
Bh11p10-8h10p8----------------------------8-10--10b(11)r10-8-------8-10--10b(11)r10--8--------8|
G--------------12-10-8------------------7--------------------7---7--------------------------7--|
D----------------------12-10-8-10-7~-----------------------------------------------------------|
A----------------------------------------------------------------------------------------------|
E----------------------------------------------------------------------------------------------|

E-----------------------------------13~-10-11-13-10-11-13-11-10-11-10--------------------------|
B-10--10b(11)r10-8-------8-10-11-13-----------------------------------13-12-10-12-10-----------|
G------------------7---7-------------------------------------------------------------12-10-8-10|
D----------------------------------------------------------------------------------------------|
A----------------------------------------------------------------------------------------------|
E----------------------------------------------------------------------------------------------|

					     x2
E--------------------------------------0---------------------|
B---------------------------|--------|-0---|-Chorus----------|
G-8-------------------------|-Riff-1-|-2---|-----------------|
D---12-10-8-10-8------------|--------|-2---|-Repeat-and-fade-|
A----------------12-10-12---|--------|-0---|-----------------|
E------------------------------------------------------------|


Rhythm Guitar During Guitar Solo is something like this..

						x2
E-------------------------------------------------------------------------|
B-------------------------------------|-----------------------------------|
G-------------------------------------|-----------------------------------|
D---9--7-----7--7-----7--7----5--3----|-----------------------------------|
A---7--7-----8--7-----7--7----3--3----|-5---5---5---3----5---5---5---3----|
E---5--5-----5--5-----5--5----1--1------3---3---3---1----3---3---3---1----|

TABLAURE EXPLANATION
************************

pm..| = Plam mute

p = Pull off

h = Hammer on

b = bend

/ = Slide Up

\ = Slide Down

|	 |
|*	*| = Repeat from *  to *
|*	*|		     *     *	
|	 |
Comments