Stratovarius - Twilight Time Chords & Tabs

 

Twilight Time Chords & Tabs

Stratovarius Chords & Tabs

Version: 1 Type: Tab 0 ratings
1 star 2 stars 3 stars 4 stars 5 stars
comments

Twilight Time Tab

   
Location: Season of Change - http://www.sci.fi/~jnevala/stratovarius/


STRATOVARIUS - TWILIGHT TIME (From Twilight Time)
Music&Words By: Tolkki and Lassila

Transcribed By: Niclas Buss

Email: nbjbuss@hotmail.com
	 Dabuss@xoommail.com
	 nbuss@vosmail.abo.fi

Tune Down 1/2 Step!

  			         x2			      Gtr.2 with Riff 1A (x2)
E--------------------------------------------------------------7)----7)-----8)-----8)----|
B-----------------------------------|------------------------|-8(----8(-----8(-----8(----|
G-----------------------------------|------------------------|-9)----9)-----9)-----9(----|
D-----11-------9--------------------|------------------------|-9(----9(----10(----10)----|
A------9-------7-------9-------10---|-10-9-10-12-10-9--------|-7)----7)----10)----10(----|
E--0-0-0---0-0-0---0-0-8---0-0--8---------------------12-10----0(----0(-----8(-----8)----|
  pm..|   pm..|   pm..|   pm..|         pm...|  pm...|

E--7)----7)-----8)-----8)----------------------------------------------------------------|
B--8(----8(-----8(-----8(----|-----------------------------------------------------------|
G--9)----9)-----9)-----9)----|-----------------------------------------------------------|
D--9(----9(----10(----10(----|--9--------9--------9--------------------------------------|
A--7)----7)----10)----10)----|--7--------7--------7-------7-\5---5-\3---3---3\\\---------|
E--0(----0(-----8(-----8(------------0-0------0-0-------0------0------0-----1\\\---------|
				    pm..|    pm..|     pm     pm     pm
  Verse
E----------------------------------------------------------------------------------------|
B----------------------------------------------------------------------------------------|
G*---------------------------------------------------------------------------------------|
D*-9--------9---9----9---9-----9-7-9-------9---9----9---9-----9-7-9-------9----9---------|
A--7--------7---7----7---7-----7-5-7-------7---7----7---7-----7-5-7-------7----7-----3-3-|
E--0----0-0---0----0---0---0-0---------0-0---0----0---0---0-0---------0-0----0-----------|
      pm...| pm   pm  pm  pm..|      pm...| pm   pm  pm  pm..|	     pm..|  pm      pm..|

						          x2  Bridge
E----------------------------------------------------------------------------------------|
B------------------------------------------------------------|---------------------------|
G-4-5-----------4-5-------------------------------------/7--*|---------------------------|
D-----4--5----------4--5------10--9--4-------4---4---4--/7--*|-----------7-----7---------|
A-----3--3--3-3-----3--3--5-5--5--5--5---5-5-5-5-5-5-5--/5---|---3---2---5-5-5-5---2---3-|
E----------------------------------------------------------------1---0-------------0---1-|
           pm..|         pm..|          pm..| pm  pm                      pm..|
			
				               Chorus 
E----------------------------------------------------------------------------------------|
B---------------------------------------------|------------------------------------------|
G---------------------------------------------|------------------------------------------|
D------4---------------------4-----5-4-2-5-4--|--11---9------------11---9----------------|
A--2---2-2-2-2-2-2-2-2-2-2-2-2-2-2-3-2-0-3-2--|---9---7---9---10----9---7---9---10---10-9|
E--0------------------------------------------------------8----8------------8----8-------|
        pm..................| pm..|						       pm

E----------------------------------------------------------------------------------------|
B----------------------------------------------------------------------------------------|
G----------------------------------------------------------------------------------------|
D-------------------11-------9---------------------------------------11------9-----------|
A-10-12-10-9---------9-------7-----9-----10--10-9-10-12-10-9----------9------7-----9-----|
E------------12-10---0-----0-----0-8---0--8------------------12-10----0----0-----0-8---0-|
  pm   pm...|             pm    pm    pm        pm..|   pm..|             pm    pm    pm  

 								     x2
E----------------------------------------------------------------------------------------|
B----------------------|------------------------------------------------|----------------|
G----------------------|*----------------------------------------------*|----------------|
D----------------------|*---9---7---9---7----------------9---7---9---7-*|----9---7---9---|
A-101010101010101010\--|----7---5---7---5--10-9-7--------7---5---7---5--|----7---5---7---|
E--8-8-8-8-8-8-8-8-8\-----0---0---0---0-----------10---0---0---0---0-------0---0---0---0-|

E----------------------------------------------------------------------------------------|
B----------------------------------------------------------------------------------------|
G----------------------------------------------------------------------------------------|
D-7----------------9---7---9---7----------------9---7---9---7----------------9---7---9---|
A-5--10-9-7--------7---5---7---5--10-9-7--------7---5---7---5--10-9-7--------7---5---7---|
E-----------10---0---0---0---0-----------10---0---0---0---0-----------10---0---0---0-----|

  Guitar Solo
E----------------------------------------------------------------------------------------|
B----------------------------------------------------------------------------------------|
G---------------7-9~--11b(12)r11--7-------------------11b(12)r11--7-----------12-14-17-16|
D--------7-9-10----------------------10-9-7--------------------------12-14-16------------|
A-7-9-10------------------------------------10-9----7------------------------------------|
E------------------------------------------------10--------------------------------------|
 pm..............| 
										    T
E------------------------------------------------------------------17--------------19-17-|
B------------------/17-17---19-20-19-17-15-19-20-19-17-19-17-19-20----20-19-17-15--------|
G-14-16-17-14--16------------------------------------------------------------------------|
D----------------------------------------------------------------------------------------|
A----------------------------------------------------------------------------------------|
E----------------------------------------------------------------------------------------|

      T
E-15-19-17-15-17-15----------------------------------------------------------------------|
B-------------------19-17-15-19-17-15----------------------------------------------------|
G-------------------------------------17-16-14----------------------------14----14-16-14-|
D----------------------------------------------17-16-14~---14-16-17-16-17----17----------|
A----------------------------------------------------------------------------------------|
E----------------------------------------------------------------------------------------|

E----------------15-17-19-19b(20)-r19-17-15h17p15p14h15p14----17-19-20-19----------------|
B-------15-17-19----------------------------------------------------------20-17----------|
G-16-17-------------------------------------------------------------------------16-----19|
D------------------------------------------------------------------------------------19--|
A----------------------------------------------------------------------------------------|
E----------------------------------------------------------------------------------------|
[ Tab from: http://www.guitartabs.cc/tabs/s/stratovarius/twilight_time_tab.html ]
E-------17-19-19b(20)-19b(20)-/20-19-17-19---20-17----------17-19-20--/22-20-19-17-20-19-|
B-19-20--------------------------------------------18----18------------------------------|
G-----------------------------------------------------17---------------------------------|
D----------------------------------------------------------------------------------------|
A----------------------------------------------------------------------------------------|
E----------------------------------------------------------------------------------------|

E-17-15-19-17-15-14-17-15-14-15-12~--19------17------------------------------------------|
B-------------------------------------/--19---/--12--13-12-10----------10-12---/16-17-16h|
G-------------------------------------/---/---/---/-----------12-11-12-----/-----/-------|
D-------------------------------------/---/---/---/------------------------/-----/-------|
A-----------------------------------------/-------/------------------------/-----/-------|
E----------------------------------------------------------------------------------------|

									 end Guitar Solo 
E--------------------------12b(14)~~---let-ring------------\\//\\\////\\\\\--------------|
B-17p16-14h16p14-10-12~------------------------------------------------------------------|
G----------------------------------------------------------------------------------------|
D----------------------------------------------------------------------------------------|
A----------------------------------------------------------------------------------------|
E----------------------------------------------------------------------------------------|
 
 Acoustic Guitar 
E----------------------------------------------------------------------------------------|
B----------------------------------------------------------------------------------------|
G-11)-----7-9---11)----7-9-----11)----7-9---11)----7-9---11)----7-9---11)----7-9---11)---|
D--9)---9-------10(--9----------9(--9-------10(--9--------9(--9-------10(--9--------9(--9|
A--7(------------9)-------------7)-----------9)-----------7)-----------9)-----------7)---|
E--0)------------8(-------------0(-----------8(-----------0(-----------8(-----------0(---|

         Dist.Gtr. with Riff 2
E----------------------------------------------------------------------------------------|
B------|---------------------------------------------------------------------------------|
G-7-9--|*--------------------------------------------------------------------------------|
D------|*-9-----------------9------------------------------------------------------------|
A------|--7-----------------7-----------------9-----------------9----------------10------|
E-----------0-0-0-0-0-0-0-0---0-0-0-0-0-0-0-0-8-8-8-8-8-8-8-8-8-8-8-8-8-8-8-8-8-8-8-8-8-8|
 	   pm..............| pm..............| pm..............| pm..............| pm...|

							           x2
E----------------------------------------------------------------------------------------|
B---------------------------------------------------------------------|------------------|
G--------------------------------------------------------------------*|------------------|
D-------------------------------11----------------11-----------------*|--9---------------|
A-----------10-------------------9-----------------9------------------|--7---------------|
E-8-8-8-8-8--8-8-8-8-8-8-8-8-8-----0-0-0-0-0-0-0-0---0-0-0-0-0-0-0-0-------0-0-0-0-0-0-0-|
 pm........|  pm..............|   pm..............| pm..............|     pm............|

E----------------------------------------------------------------------------------------|
B----------------------------------------------------------------------------------------|
G----------------------------------------------------------------------------------------|
D---9------------------------------------------------------------------------------------|
A---7-----------------9-----------------9-----------------10-------------------10-9-10-12|
E-0---0-0-0-0-0-0-0-0-8-8-8-8-8-8-8-8-8-8-8-8-8-8-8-8-8-8--8-8-8-8-8-8-8-8-8-------------|
 pm  pm..............| pm..............| pm..............|  pm..............|    pm...|

E----------------------------------------------------------------------------------------|
B-------------|--------------------------------------------------------------------------|
G-------------|--------------------------------------------------------------------------|
D-------------|-11---9------------11---9-----------------------------------11-------9----|
A-10-9--------|--9---7---9---10----9---7---9---10---10-9-10-12-10-9---------9-------7----|
E------12-10-------------8----8------------8----8-------------------12-10---0-----0----0-|
    pm...|					      pm...|  pm...|		 pm   pm

E----------------------------------------------------------------------------------------|
B----------------------------------------------------------------------------------------|
G----------------------------------------------------------------------------------------|
D------------------------------------11-----9--------------------------------------11----|
A-9-----10--10-9-10-12-10-9----------9------7-----9-----10--10-9-10-12-10-9---------9----|
E-8---0--8------------------12-10----0----0-----0-8---0--8------------------12-10---0--0-|
     pm       pm...|  pm...|		 pm    pm    pm       pm...|  pm...|	      pm

E----------------------------------------------------------------------------------------|
B----------------------------------------------------------------------------------------|
G----------------------------------------------------------------------------------------|
D-9-------------------------------------11------9----------------------------4--5-----4--|
A-7----9----10--10-9-10-12-10-9----------9------7-----9----10----10\----2----2--3-----2--|
E----0-8--0--8------------------12-10----0----0-----0-8--0--8-----8\----0----------------|
    pm   pm       pm...|  pm...|             pm    pm   pm

E----------------|
B----------------|
G----------------| end
D----------------|
A--2~~-----------|
E--0~~-----------|


 Rhythm Guitar During Guitar Solo
E------------------------------------------------|
B----------------------------------|-------------|
G----------------------------------|-Bridge-riff-|
D--9---7---9---7---9---7---9---7---|-------------|
A--7---5---7---5---7---5---7---5---|-------------|
E------------------------------------------------|

  Riff 1A (Gtr.1)
E----------------------------------------------------------|
B----------------------------------------------------------|
G----------------------------------------------------------|
D-----11-------9-------------------------------------------|
A------9-------7-------9------10----10-9-10-12-10-9--------|
E-0-0--0---0-0-0---0-0-8---0-0-8--------------------12-10--|
 pm..|    pm..|   pm..|   pm..|       pm...|  pm...|

  Riff 2 (Acoustic Guitar)
E--------------------------------------------------------------------------|
B--------------------------------------------------------------------------|
G--11(----7-9---11)----7-9-----11(----7-9---11)----7-9-----11)----7-9------|
D--10)--9--------9(--9---------10)--9--------9(--9---------10(--9----------|
A---9(-----------7)-------------9(-----------7)-------------9(-------------|
E---8)-----------0(-------------8)-----------0(-------------8)-------------|

TABLAURE EXPLANATION
**********************
pm..| = Palm mute

p = Pull off

h = Hammer on

b() = Bend

T = Tap

/ = Slide up

\ = Slide down

~~~~ = vibrato

--------
---12---
----/--- = Tremolo Picking
----/---
----/---
--------

|     |
|     |
|*   *| = repeat from * to *
|*   *| 
|     |
Comments