Stratovarius - Thin Ice Chords & Tabs

 

Thin Ice Chords & Tabs

Stratovarius Chords & Tabs

Version: 1 Type: Tab 0 ratings
1 star 2 stars 3 stars 4 stars 5 stars
comments

Thin Ice Tab

STRATOVARIUS - THIN ICE (From Dreamspace)
Music&Words:By Tolkki\Lassila

Transcribed By: Niclas Buss(nbjbuss@hotmail.com)

Please mail me if you find mistakes!

Tune Down  Step!

 Clean sound
 Riff 1
E----------------3-----------------------------3-----------------------------5----------------|
B-------------0-----0-----------------------0-----0-----------------------0-----0-------------|
G----------3-----------3-----------------3-----------3-----------------5-----------5----------|
D-------2-----------------2-----------2-----------------2-----------4-----------------4-------|
A----1-----------------------1-----1-----------------------1-----3-----------------------3----|
E-0-----------------------------0-----------------------------0-----------------------------0-|

E-------------3-----------------------------3-----------------------------3-------------------|
B----------0-----0-----------------------0-----0-----------------------0-----0----------------|
G-------5-----------5-----------------3-----------3-----------------3-----------3-------------|
D----4-----------------4-----------2-----------------2-----------2-----------------2----------|
A-3-----------------------3-----1-----------------------1-----1-----------------------1-----0-|
E----------------------------0-----------------------------0-----------------------------0----|
							    end Riff 1
E----------2-----------------------------2----------------------------------------------------|
B-------0-----0-----------------------0-----0-----------|-Verse-1-with-riff-1--|--------------|
G----2-----------2-----------------2-----------2--------|-----------(2-times-)-|-5--5--5--5--5|
D-1-----------------1-----------1-----------------1-----|----------------------|-5--5--5--5--5|
A----------------------0-----0-----------------------0--|----------------------|-3--3--3--3--3|
E-------------------------0-------------------------------------------------------------------|
[ Tab from: http://www.guitartabs.cc/tabs/s/stratovarius/thin_ice_tab.html ]
E-------------5--5--5------15-----14-----17-----15----------------------------5--5--5------15-|
B---------------------------------------------------------------------------------------------|
G-5-5---5--5--5--5--5------------------------------5--5--5--5--5--5-5---5--5--5--5--5---------|
D-5-5---5--5--5--5--5------------------------------5--5--5--5--5--5-5---5--5--5--5--5---------|
A-3-3---3--3--3--3--3------------------------------3--3--3--3--3--3-3---3--3--3--3--3---------|
E----------------------0-0----0-0----0-0----0-0----------------------------------------0-0----|

E-14-----17------19~~---------------------------------------------------------5--5--5------15-|
B-------------------------|-Verse-2-with-riff-1--|--------------------------------------------|
G-------------------------|------------(2-times)-|-5--5--5--5--5--5-5---5--5--5--5--5---------|
D-------------------------|----------------------|-5--5--5--5--5--5-5---5--5--5--5--5---------|
A--------------------2~~--|----------------------|-3--3--3--3--3--3-3---3--3--3--3--3---------|
E----0-0----0-0------0~~---------------------------------------------------------------0-0----|

E-14-----17-----15----------------------------5--5--5------15-----14-----17-----15-----15-----|
B---------------------------------------------------------------------------------------------|
G------------------5--5--5--5--5--5-5---5--5--5--5--5-----------------------------------------|
D------------------5--5--5--5--5--5-5---5--5--5--5--5-----------------------------------------|
A------------------3--3--3--3--3--3-3---3--3--3--3--3-----------------------------------------|
E----0-0----0-0----------------------------------------0-0----0-0----0-0----0-0----0-0----0-0-|

E-14-----17-----15~~~~----------------------------------|
B----------------------|-----Repeat-and-fade------------|
G----------------------|--------------------------------|
D----------------------|-9-9--9-9-11-12--7-7--7-7-11-12-|
A----------------------|-7-7--7-7--9-10--5-5--5-5--9-10-|
E------0-0----0-0---------------------------------------|

TABLATURE EXPLANATION
**********************

~~~~= Vibrato
Comments