Stratovarius - The Kiss Of Judas Chords & Tabs

 

The Kiss Of Judas Chords & Tabs

Stratovarius Chords & Tabs

Version: 1 Type: Tab 0 ratings
1 star 2 stars 3 stars 4 stars 5 stars
comments

The Kiss Of Judas Tab

Location: Season of Change - http://www.sci.fi/~jnevala/stratovarius/
[ Tab from: http://www.guitartabs.cc/tabs/s/stratovarius/the_kiss_of_judas_tab.html ]
Artist: Stratovarius
Title:  The Kiss of Judas
Album:  Visions
Transcribed by Roger H. Beck
e-mail address: roger_h_beck@hotmail.com
 
Tune down a half step
 
 
 
Intro (Drums and Bass)
 
 
           Main Theme
           Riff 1 (2x)
 
e(--------(-----------------------------------------------
B(--------(-----------------------------------------------
G(--------(-9=---------------------7=---------------------
D(--------(-9=---------------------7=---------------------
A(---x/---(-7=---------------------5=---------------------
E(---x/---(------0-0-0--0-0-0--0-0------0-0-0--0-0-0--0-0-
           P.M.  . . .  . . .  . .      . . .  . . .  . .
 
e(-----------------------------------------------)--------
B(-----------------------------------------------)--------
G(-6=---------------------5=---------------------)--------
D(-7=---------------------5=---------------------)-2===---
A(-4=---------------------3=---------------------)-2===---
E(------0-0-0--0-0-0--0-0------0-0-0--0-0-0--0-0-)-0===---
P.M.    . . .  . . .  . .      . . .  . . .  . .
 
 
Verse
Riff 2 (clean, let ring)
 
e(------------------0=------------------------0=---------)
B(---0=---1=---3=---0=---------0=---1=---3=---0=---------)
G(---0=---0=---2=---0=-------5-0=---0=---2=---0=-------5-)
D(---2=---2=---0=---2=---5-7-5-2=---2=---0=---2=---5-7-5-)
A(---2=---3=---0=---2=---5-7-3-2=---3=---0=---2=---5-7-3-)
E(---0=-------------0=---3-5---0=-------------0=---3-5---)
                        {  dist. }                {dist.}
 
Pre-Chorus
Riff 3
 
e(-------------------------------------------8-11-12-11-8---------------
B(-----------------------------------8-10-12--------------12-10-8-------
G(-4=---5/-4-4=---2=----------8-9-11------------------------------11-9-8
D(-4=---5/-4-4=---2=---7-9-10-------------------------------------------
A(-2=---3/-2-2=---0=----------------------------------------------------
E(----------------------------------------------------------------------
 
e(-------------------------------------------)B(-------------------------------------------)
G(----------4=---5/-4-4=---7/-5-5=---7/-9=---)
D(-10-9-7---4=---5/-4-4=---7/-5-5=---7/-9=---)
A(----------2=---3/-2-2=---5/-3-3=---5/-7=---)
E(-------------------------------------------)
 
 
Chorus     - Riff 1 (4x)
Verse 2    - Riff 2
Pre-Chorus - Riff 3
Chorus     - Riff 1 (4x)
 
 
Interlude
Riff 4 (clean) (2x)
 
e(----------0-19---0-17---0-15---0-14---0-12---0-10---0-8=---)
B(--------0------0------0------0------0------0------0--------)
G(------0----------------------------------------------------)
D(-2=--------------------------------------------------------)
A(-2=--------------------------------------------------------)
E(-0=--------------------------------------------------------)
{dist.}
 
Bridge
Riff 5 (2x)
 
e(-------------------------------------------------------------
B(-------------------------------------------------------------
G(---5--5-5-5--5-5-5--5-5-5--5-5/-4--4-4-4--4-4-4--4-4-4--4-4/-
D(---5--5-5-5--5-5-5--5-5-5--5-5/-4--4-4-4--4-4-4--4-4-4--4-4/-
A(---3--3-3-3--3-3-3--3-3-3--3-3/-2--2-2-2--2-2-2--2-2-2--2-2--
E(-------------------------------------------------------------
P.M. .  . . .  . . .  . . .  . .  .  . . .  . . .  . . .  . .
 
e(------------------------)
B(------------------------)
G(---5=---5=---5/-4=---4=-)
D(---5=---5=---5/-4=---4=-)
A(------3----3-------2-2=-)
E(------------------------)
P.M.    .    .       .
 
 
Guitar Solo
Rhythm Part
 
e(----------------------------------------------------------------------
B(----------------------------------------------------------------------
G(----------------------------------------------------------------------
D(-4=-4/-5-4=-4/-5-4=-4/-5-4=-4/-5-4=-7=-7/-8-7=-7/-8-7=-7/-8-7=-7/-8-7=
A(-4=-4/-5-4=-4/-5-4=-4/-5-4=-4/-5-4=-7=-7/-8-7=-7/-8-7=-7/-8-7=-7/-8-7=
E(-2=-2/-3-2=-2/-3-2=-2/-3-2=-2/-3-2=-5=-5/-6-5=-5/-6-5=-5/-6-5=-5/-6-5=
 
e(---------------------------------------------------------
B(---------------------------------------------------------
G(-7-7=---3-3=---7-7=---5-5=---7-7=---3-3=----------5-5=---
D(-7-7=---3-3=---7-7=---5-5=---7-7=---3-3=---5-5=---5-5=---
A(-5-5=---1-1=---5-5=---3-3=---5-5=---1-1=---5-5=---3-3=---
E(-------------------------------------------3-3=----------
 
e(---------------------------------------------------------)--------
B(---------------------------------------------------------)--------G(-7-7=---3-3=----------5-5=---7-7=---3-3=---4-4=---4-4=---)--------
D(-7-7=---3-3=---5-5=---5-5=---7-7=---3-3=---4-4=---4-4=---)-2===---
A(-5-5=---1-1=---5-5=---3-3=---5-5=---1-1=---2-2=---2-2=---)-2===---
E(---------------3-3=--------------------------------------)-0===---
 
 
Interlude  - Riff 4 (2x) Keyboards only
Main Theme - Riff 1 (4x)
 
 
Outro
Riff 6 (5x)
 
e(-----------------------------------------------
B(-----------------------------------------------
G(-8=---0-0-0--0-0-0--0-0-6=---0-0-0--0-0-0--0-0-
D(-7=---------------------5=---------------------
A(-----------------------------------------------
E(-----------------------------------------------
P.M.    . . .  . . .  . .      . . .  . . .  . .
 
                                         fade out
e(-----------------------------------------------)
B(-----------------------------------------------)
G(-5=---0-0-0--0-0-0--0-0-4=---0-0-0--0-0-0--0-0-)
D(-5=---------------------3=---------------------)
A(-----------------------------------------------)
E(-----------------------------------------------)
P.M.    . . .  . . .  . .      . . .  . . .  . .
 
 
 
 
Symbol explanation
 
P.M.  Palm Mute (notes marked with dot)
/     slide
=     sustained
 
 
 
Note: If you find any mistakes please send e-mail
Comments