Stratovarius - Tears Of Ice Chords & Tabs

 

Tears Of Ice Chords & Tabs

Stratovarius Chords & Tabs

Version: 1 Type: Tab 0 ratings
1 star 2 stars 3 stars 4 stars 5 stars
comments

Tears Of Ice Tab

                            Music :TEARS OF ICE
                             Album :DREAMSPACE

by SErgio Daher - BRAZIL
MAIL:
dtheater@hotmail.com
sergiod@sti.com.br

my page: "Guitar Hero Page"
http://www.geocities/SunsetStrip/Stage/2522/index.htm


 Guitar 1/2 step down!!!
-------------------------
/\/ = Vibrato
/   = Slide Up
ha  = Harmonic
1/2 = bend half step
-------------------------
Clean

Eb|-------------------------------------------------------------------------|
Bb|--15-------15-------15--------15---------15--------15-------13-----------|
Gb|-----12-------12-------12--10----12--10-----12--------12-------12--------|
Db|--------12-------12----------------------------13--------13-------13-----|
Ab|-------------------------------------------------------------------------|
Eb|-------------------------------------------------------------------------|

Eb|-------------------------------------------------------------------------|
Bb|--13-------15-------15-------15-------15-------15------15-------13-------|
Gb|-----12-------12-------12-------12-10----12-10----12------12-------12----|
Db|--------13-------12-------12-------------------------13------13-------13-|
Ab|-------------------------------------------------------------------------|
Eb|-------------------------------------------------------------------------|
   flaute...

Eb|-------------------------------------------------------------------------|
Bb|--------------13--15--13---11--10--11--10--------------------13--15--13--|
Gb|-15-14-15/\/\------------------------------12/\/--15--14--15-------------|
Db|-------------------------------------------------------------------------|
Ab|-------------------------------------------------------------------------|
Eb|-------------------------------------------------------------------------|
[ Tab from: http://www.guitartabs.cc/tabs/s/stratovarius/tears_of_ice_tab.html ]
Eb|---------------------------------------------3---------------------------|
Bb|-11/10/11/10-------|---------5------------6----6---------5---------------|
Gb|--------------12---|-------7---7----7----5--5----5-----7---7-----7-------|
Db|-------------------|-0---7---------7----3------------7---------7---------|
Ab|-------------------|---5---------5-----------------5---------5-----------|
Eb|-------------------------------------------------------------------------|
solo...
Eb|---------------------------15--------------------------------------------|
Bb|---15--13--15-15-13-15/\/-----15-15-13-13-11-10-11----10-/-11-10-/-11----|
Gb|-------------------------------------------------------------------------|
Db|-------------------------------------------------------------------------|
Ab|-------------------------------------------------------------------------|
Eb|-------------------------------------------------------------------------|

Eb|----------------------------------------15-------------------------------|
Bb|-10-8-8--10-10-|-15--13--15-15-13-15/\/----15-15-13-13-11-10-11----------|
Gb|---------------|---------------------------------------------------------|
Db|---------------|---------------------------------------------------------|
Ab|---------------|---------------------------------------------------------|
Eb|-------------------------------------------------------------------------|

Eb|-------------------------------------------------------------------------|
Bb|---10-/-11-10-/-11---10-11--10--8--8--10--7-/-8/\/\/\/\------------------|
Gb|-------------------------------------------------------------------------|
Db|-------------------------------------------------------------------------|
Ab|-------------------------------------------------------------------------|
Eb|-------------------------------------------------------------------------|


End.
Comments