Stratovarius - Soul Of A Vagabond Chords & Tabs

 

Soul Of A Vagabond Chords & Tabs

Stratovarius Chords & Tabs

Version: 1 Type: Tab 0 ratings
1 star 2 stars 3 stars 4 stars 5 stars
comments

Soul Of A Vagabond Tab

   
Email - www.iwantout@gmail.com

Stratovarius - Soul of a Vagabond

tune down to D

Intro:
e|---------------------------------------|
b|---------------------------------------|
g|---------------------------------------|
d|-2-2-2-2-0-2-2-2-2-0-2-2-2-2-0-2-3-5-7-|
a|-2-2-2-2-0-2-2-2-2-0-2-2-2-2-0-2-3-5-7-|
d|-2-2-2-2-0-2-2-2-2-0-2-2-2-2-0-2-3-5-7-|
   . .       . .       . .  

e|-----------------------------------------|
b|-----------------------------------------|
g|-----------------------------------------|
d|-2-2-2-2-0-2-2-2-2-0-2-2-2-2-0-3/5-4-5/7-|
a|-2-2-2-2-0-2-2-2-2-0-2-2-2-2-0-3/5-4-5/7-|
d|-2-2-2-2-0-2-2-2-2-0-2-2-2-2-0-3/5-4-----|
   . .       . .       . . 

e|---------------------------------------|
b|---------------------------------------|
g|---------------------------------------|
d|-2-2-2-2-0-2-2-2-2-0-2-2-2-2-0-2-3-5-7-|
a|-2-2-2-2-0-2-2-2-2-0-2-2-2-2-0-2-3-5-7-|
d|-2-2-2-2-0-2-2-2-2-0-2-2-2-2-0-2-3-5-7-|
   . .       . .       . .  

e|-----------------------------------------|
b|-----------------------------------------|
g|-----------------------------------------|
d|-2-2-2-2-0-2-2-2-2-0-2-2-2-2-0-3/5-4-5-5-|
a|-2-2-2-2-0-2-2-2-2-0-2-2-2-2-0-3/5-4-5-5-|
d|-2-2-2-2-0-2-2-2-2-0-2-2-2-2-0-3/5-4-----|
   . .       . .       . . 

e|---------------------------------------|
b|---------------------------------------|
g|---------------------------------------|
d|-2-2-2-2-0-2-2-2-2-0-2-2-2-2-0-2-3-5-7-|
a|-2-2-2-2-0-2-2-2-2-0-2-2-2-2-0-2-3-5-7-|
d|-2-2-2-2-0-2-2-2-2-0-2-2-2-2-0-2-3-5-7-|
   . .       . .       . .  

e|-----------------------------------------|
b|-----------------------------------------|
g|-----------------------------------------|
d|-2-2-2-2-0-2-2-2-2-0-2-2-2-2-0-3/5-4-5/7-|
a|-2-2-2-2-0-2-2-2-2-0-2-2-2-2-0-3/5-4-5/7-|
d|-2-2-2-2-0-2-2-2-2-0-2-2-2-2-0-3/5-4-----|
   . .       . .       . . 

e|---------------------------------------|
b|---------------------------------------|
g|---------------------------------------|
d|-2-2-2-2-0-2-2-2-2-0-2-2-2-2-0-2-3-5-7-|
a|-2-2-2-2-0-2-2-2-2-0-2-2-2-2-0-2-3-5-7-|
d|-2-2-2-2-0-2-2-2-2-0-2-2-2-2-0-2-3-5-7-|
   . .       . .       . .  

e|-----------------------------------------|
b|-----------------------------------------|
g|-----------------------------------------|
d|-2-2-2-2-0-2-2-2-2-0-2-2-2-2-0-3/5-4-5-5-|
a|-2-2-2-2-0-2-2-2-2-0-2-2-2-2-0-3/5-4-5-5-|
d|-2-2-2-2-0-2-2-2-2-0-2-2-2-2-0-3/5-4-----|
   . .       . .       . . 

e|---------------------------------------|
b|---------------------------------------|
g|-----9-9-7-----10107-----9-9-7-7-5-5-4-|
d|-7-7-7-7-7-7-7-7-7-7-7-7-7-7-7-7-5-5-4-|
a|-7-7-------7-7-------7-7---------------|
d|-7-7-------7-7-------7-7---------------|
   . .       . .       . . 

e|---------------------------------------|
b|---------------------------------------|
g|-----9-9-7-----10107-----9-9-7-7-5-5-4-|
d|-7-7-7-7-7-7-7-7-7-7-7-7-7-7-7-7-5-5-4-|
a|-7-7-------7-7-------7-7---------------|
d|-7-7-------7-7-------7-7---------------|
   . .       . .       . . 

e|---------------------------------------|
b|---------------------------------------|
g|---------------------------------------|
d|-7-7-9-9-7-7-7-9-9-7-7-7-9-9-7-7-5-5-4-|
a|-7-7-7-7-7-7-7-7-7-7-7-7-7-7-7-7-5-5-4-|
d|-7-7-------7-7-------7-7---------------|
   . .       . .       . . 

e|---------------------------------------|
b|---------------------------------------|
g|---------------------------------------|
d|-7-7-9-9-7-7-7-9-9-7-7-7-9-9-7-7-5-5-4-|
a|-7-7-7-7-7-7-7-7-7-7-7-7-7-7-7-7-5-5-4-|
d|-7-7-------7-7-------7-7---------------|
   . .       . .       . . 

e|-----------------------------------------------------|
b|-----------------------------------------------------|
g|-----------------------------------------------------|
d|-4-5-4-2-4-5-4-2-4-4-5-4-2-4-5-4-0-2-0---------------|
a|---------------------------------------4-2-3-2-0-----|
d|-------------------------------------------------6-5-|
     .....   .....   .................................

e|---|
b|---|
g|---|
d|-2-|
a|-2-|
d|-2-| let it ring...


e|---------------------------------------|
b|---------------------------------------|
g|---------------------------------------|
d|-2-2-2-2-0-2-2-2-2-0-2-2-2-2-0-2-3-5-7-|
a|-2-2-2-2-0-2-2-2-2-0-2-2-2-2-0-2-3-5-7-|
d|-2-2-2-2-0-2-2-2-2-0-2-2-2-2-0-2-3-5-7-|
   . .       . .       . .  

e|-----------------------------------------|
b|-----------------------------------------|
g|-----------------------------------------|
d|-2-2-2-2-0-2-2-2-2-0-2-2-2-2-0-3/5-4-5/7-|
a|-2-2-2-2-0-2-2-2-2-0-2-2-2-2-0-3/5-4-5/7-|
d|-2-2-2-2-0-2-2-2-2-0-2-2-2-2-0-3/5-4-----|
   . .       . .       . . 

e|---------------------------------------|
b|---------------------------------------|
g|---------------------------------------|
d|-2-2-2-2-0-2-2-2-2-0-2-2-2-2-0-2-3-5-7-|
a|-2-2-2-2-0-2-2-2-2-0-2-2-2-2-0-2-3-5-7-|
d|-2-2-2-2-0-2-2-2-2-0-2-2-2-2-0-2-3-5-7-|
   . .       . .       . . 
 
e|-----------------------------------------|
b|-----------------------------------------|
g|-----------------------------------------|
d|-2-2-2-2-0-2-2-2-2-0-2-2-2-2-0-3/5-4-5-5-|
a|-2-2-2-2-0-2-2-2-2-0-2-2-2-2-0-3/5-4-5-5-|
d|-2-2-2-2-0-2-2-2-2-0-2-2-2-2-0-3/5-4-----|
   . .       . .       . . 

e|---------------------------------------|
b|---------------------------------------|
g|-----9-9-7-----10107-----9-9-7-7-5-5-4-|
d|-7-7-7-7-7-7-7-7-7-7-7-7-7-7-7-7-5-5-4-|
a|-7-7-------7-7-------7-7---------------|
d|-7-7-------7-7-------7-7---------------|
   . .       . .       . . 

e|---------------------------------------|
b|---------------------------------------|
g|-----9-9-7-----10107-----9-9-7-7-5-5-4-|
d|-7-7-7-7-7-7-7-7-7-7-7-7-7-7-7-7-5-5-4-|
a|-7-7-------7-7-------7-7---------------|
d|-7-7-------7-7-------7-7---------------|
   . .       . .       . . 

e|---------------------------------------|
b|---------------------------------------|
g|---------------------------------------|
d|-7-7-9-9-7-7-7-9-9-7-7-7-9-9-7-7-5-5-4-|
a|-7-7-7-7-7-7-7-7-7-7-7-7-7-7-7-7-5-5-4-|
d|-7-7-------7-7-------7-7---------------|
   . .       . .       . . 

e|---------------------------------------|
b|---------------------------------------|
g|---------------------------------------|
d|-7-7-9-9-7-7-7-9-9-7-7-7-9-9-7-7-5-5-4-|
a|-7-7-7-7-7-7-7-7-7-7-7-7-7-7-7-7-5-5-4-|
d|-7-7-------7-7-------7-7---------------|
   . .       . .       . . 

e|-----------------------------------------------------|
b|-----------------------------------------------------|
g|-----------------------------------------------------|
d|-4-5-4-2-4-5-4-2-4-4-5-4-2-4-5-4-0-2-0---------------|
a|---------------------------------------4-2-3-2-0-----|
d|-------------------------------------------------6-5-|
     .....   .....   .................................
[ Tab from: http://www.guitartabs.cc/tabs/s/stratovarius/soul_of_a_vagabond_tab.html ]
e|---|
b|---|
g|---|
d|-2-|
a|-2-|
d|-2-| let it ring...

e|---------------------------------------|
b|---------------------------------------|
g|---------------------------------------|
d|-2-2-2-2-0-2-2-2-2-0-2-2-2-2-0-2-3-5-7-|
a|-2-2-2-2-0-2-2-2-2-0-2-2-2-2-0-2-3-5-7-|
d|-2-2-2-2-0-2-2-2-2-0-2-2-2-2-0-2-3-5-7-|
   . .       . .       . .  

e|-----------------------------------------|
b|-----------------------------------------|
g|-----------------------------------------|
d|-2-2-2-2-0-2-2-2-2-0-2-2-2-2-0-3/5-4-5/7-|
a|-2-2-2-2-0-2-2-2-2-0-2-2-2-2-0-3/5-4-5/7-|
d|-2-2-2-2-0-2-2-2-2-0-2-2-2-2-0-3/5-4-----|
   . .       . .       . . 

e|---------------------------------------|
b|---------------------------------------|
g|---------------------------------------|
d|-2-2-2-2-0-2-2-2-2-0-2-2-2-2-0-2-3-5-7-|
a|-2-2-2-2-0-2-2-2-2-0-2-2-2-2-0-2-3-5-7-|
d|-2-2-2-2-0-2-2-2-2-0-2-2-2-2-0-2-3-5-7-|
   . .       . .       . . 
 
e|-----------------------------------------|
b|-----------------------------------------|
g|-----------------------------------------|
d|-2-2-2-2-0-2-2-2-2-0-2-2-2-2-0-3/5-4-5-5-|
a|-2-2-2-2-0-2-2-2-2-0-2-2-2-2-0-3/5-4-5-5-|
d|-2-2-2-2-0-2-2-2-2-0-2-2-2-2-0-3/5-4-----|
   . .       . .       . . 

e|---------------------------------------|
b|---------------------------------------|
g|-----9-9-7-----10107-----9-9-7-7-5-5-4-|
d|-7-7-7-7-7-7-7-7-7-7-7-7-7-7-7-7-5-5-4-|
a|-7-7-------7-7-------7-7---------------|
d|-7-7-------7-7-------7-7---------------|
   . .       . .       . . 

e|---------------------------------------|
b|---------------------------------------|
g|-----9-9-7-----10107-----9-9-7-7-5-5-4-|
d|-7-7-7-7-7-7-7-7-7-7-7-7-7-7-7-7-5-5-4-|
a|-7-7-------7-7-------7-7---------------|
d|-7-7-------7-7-------7-7---------------|
   . .       . .       . . 

e|---------------------------------------|
b|---------------------------------------|
g|---------------------------------------|
d|-7-7-9-9-7-7-7-9-9-7-7-7-9-9-7-7-5-5-4-|
a|-7-7-7-7-7-7-7-7-7-7-7-7-7-7-7-7-5-5-4-|
d|-7-7-------7-7-------7-7---------------|
   . .       . .       . . 

e|---------------------------------------|
b|---------------------------------------|
g|---------------------------------------|
d|-7-7-9-9-7-7-7-9-9-7-7-7-9-9-7-7-5-5-4-|
a|-7-7-7-7-7-7-7-7-7-7-7-7-7-7-7-7-5-5-4-|
d|-7-7-------7-7-------7-7---------------|
   . .       . .       . . 

e|-----------------------------------------------------|
b|-----------------------------------------------------|
g|-----------------------------------------------------|
d|-4-5-4-2-4-5-4-2-4-4-5-4-2-4-5-4-0-2-0---------------|
a|---------------------------------------4-2-3-2-0-----|
d|-------------------------------------------------6-5-|
     .....   .....   .................................


solo
e|-/19"19"19"19"19"19"19"19"19"19"19"19"19"19"19"19"19"19"19"19"19"19"19"19"19"19"19"19"|
b|--------------------------------------------------------------------------------------|
g|--------------------------------------------------------------------------------------|
d|--------------------------------------------------------------------------------------|
a|--------------------------------------------------------------------------------------|
d|--------------------------------------------------------------------------------------|

continued
e|-17-17-15-15-14-14-14-12-12-12-11-11-8-8-8-7-7~~--7^8b5~-| that's all I know of the solo,
b|---------------------------------------------------------| unfortunately. 
g|---------------------------------------------------------|
d|---------------------------------------------------------|
a|---------------------------------------------------------|
d|---------------------------------------------------------|

solo(rhythm guitar)
e|-----|----------------x4|
b|-----|------------------|
g|-----|------------------|
d|--9--|-------10----9----|
a|--9--|-------10----9----|
d|--9--|--0-10-10----9----|

e|------------------|x4
b|------------------|
g|------------------|
d|--2---------10----|
a|--2---------10----|
d|--2----0-10-10----|

after solo
e|---------------------------------------|
b|---------------------------------------|
g|-----9-9-7-----10107-----9-9-7-7-5-5-4-|
d|-7-7-7-7-7-7-7-7-7-7-7-7-7-7-7-7-5-5-4-|
a|-7-7-------7-7-------7-7---------------|
d|-7-7-------7-7-------7-7---------------|
   . .       . .       . . 

e|---------------------------------------|
b|---------------------------------------|
g|-----9-9-7-----10107-----9-9-7-7-5-5-4-|
d|-7-7-7-7-7-7-7-7-7-7-7-7-7-7-7-7-5-5-4-|
a|-7-7-------7-7-------7-7---------------|
d|-7-7-------7-7-------7-7---------------|
   . .       . .       . . 

e|-----------------------------------------------------|
b|-----------------------------------------------------|
g|-----------------------------------------------------|
d|-4-5-4-2-4-5-4-2-4-4-5-4-2-4-5-4-0-2-0---------------|
a|---------------------------------------4-2-3-2-0-----|
d|-------------------------------------------------6-5-|
     .....   .....   .................................

e|---------------------------------------|
b|---------------------------------------|
g|---------------------------------------|
d|-2-2-2-2-0-2-2-2-2-0-2-2-2-2-0-2-3-5-7-|
a|-2-2-2-2-0-2-2-2-2-0-2-2-2-2-0-2-3-5-7-|
d|-2-2-2-2-0-2-2-2-2-0-2-2-2-2-0-2-3-5-7-|
   . .       . .       . .  

e|-----------------------------------------|
b|-----------------------------------------|
g|-----------------------------------------|
d|-2-2-2-2-0-2-2-2-2-0-2-2-2-2-0-3/5-4-5/7-|
a|-2-2-2-2-0-2-2-2-2-0-2-2-2-2-0-3/5-4-5/7-|
d|-2-2-2-2-0-2-2-2-2-0-2-2-2-2-0-3/5-4-----|
   . .       . .       . . 


song starts fading here...
e|---------------------------------------|
b|---------------------------------------|
g|---------------------------------------|
d|-2-2-2-2-0-2-2-2-2-0-2-2-2-2-0-2-3-5-7-|
a|-2-2-2-2-0-2-2-2-2-0-2-2-2-2-0-2-3-5-7-|
d|-2-2-2-2-0-2-2-2-2-0-2-2-2-2-0-2-3-5-7-|
   . .       . .       . . 
 
e|-----------------------------------------|
b|-----------------------------------------|
g|-----------------------------------------|
d|-2-2-2-2-0-2-2-2-2-0-2-2-2-2-0-3/5-4-5/7-|
a|-2-2-2-2-0-2-2-2-2-0-2-2-2-2-0-3/5-4-5/7-|
d|-2-2-2-2-0-2-2-2-2-0-2-2-2-2-0-3/5-4-----|
   . .       . .       . . 

e|---------------------------------------|
b|---------------------------------------|
g|---------------------------------------|
d|-2-2-2-2-0-2-2-2-2-0-2-2-2-2-0-2-3-5-7-|
a|-2-2-2-2-0-2-2-2-2-0-2-2-2-2-0-2-3-5-7-|
d|-2-2-2-2-0-2-2-2-2-0-2-2-2-2-0-2-3-5-7-|
   . .       . .       . . 

e|-----------------------------------------|
b|-----------------------------------------|
g|-----------------------------------------|
d|-2-2-2-2-0-2-2-2-2-0-2-2-2-2-0-3/5-4-5/7-|
a|-2-2-2-2-0-2-2-2-2-0-2-2-2-2-0-3/5-4-5/7-|
d|-2-2-2-2-0-2-2-2-2-0-2-2-2-2-0-3/5-4-----|
   . .       . .       . .  


Email - www.iwantout@gmail.com
Comments