Stratovarius - Phoenix Chords & Tabs

 

Phoenix Chords & Tabs

Stratovarius Chords & Tabs

Version: 1 Type: Tab 0 ratings
1 star 2 stars 3 stars 4 stars 5 stars
comments

Phoenix Tab

Artist: Stratovarius
Title:  Phoenix
Album:  Infinite
Transcribed by Diego Alfonso Mtz Segovia
e-mail address: diegocobain@yahoo.com


Tune down a half step



Main Theme
Riff 1 (4x)

e(---------------------------------------------------------------------------
B(---------------------------------------------------------------------------
G(---------------------------------------------------------------------------
D(-----9-9-----10-10--7-9-10----9-9-----7-7------------9-9-----10-10--7-9-10-
A(---7-----7-7----------------7-----7-7------10-9-7--7-----7-7---------------
E(---------------------------------------------------------------------------
P.M. .     . .                .     . .              .     . .

e(------------------------------)
B(------------------------------)
G(------------------------------)
D(-9-7-5---7-5-----5------------)
A(-------9-----9-7---9-7-6-7=---)
E(------------------------------)


Verse 1                                     Pre-Chorus 1
Riff 2                                      Riff 3

e(---------------------------------)     e(----------------)--------
B(---------------------------------)     B(----------------)--------
G(-7=---5-5/3-3=---7=---5-5/3-3=---)     G(-5=---3=--------)---5=---
D(-7=---5-5/3-3=---7=---5-5/3-3=---)     D(-5=---3=---3=---)---5=---
A(-5=---3-3/1-1=---5=---3-3/1-1=---)     A(-3=---1=---3=---)---3=---
E(---------------------------------)     E(-----------1=---)--------
P.M.


Verse 2      - Riff 2
Pre-Chorus 2 - Riff 3


Bridge 1
Riff 4

e(---------------------------------------------------------------------
B(---------------------------------------------------------------------
G(---------------------------------------------------------------------
D(---------------------------------------------------------------------
A(---------------------------------------------------------------------
E(-5-6-5-3-5---5-6-5-3-5-5-6-5-3-5---5-6-5-3-5---5-6-5-3-5-5-6-5-3-5---

e(---------------------------------------------------------------------
B(---------------------------------------------------------------------
G(---------------------------------------------------------------------
D(---------------------------------------------------------------------
A(---------------------------------------------------------------------
E(-7-8-7-5-7---7-8-7-5-7-7-8-7-5-7---7-8-7-5-7---7-8-7-5-7-7-8-7-5-7---


                     Chorus 1
                     Riff 5

e(-----------------(--------------------------------------------
B(-----------------(--------------------------------------------
G(-----------------(-----------7=---9=---5=---3=-----------4=---
D(-----------------(-2=---7=---7=---9=---5=---4=-----------4=---
A(-2-3-2-----------(-2=---7=---5=---7=---3=---1=---2-------2=---
E(-------5-3-5-3-2-(-0=---5=-------------------------5-3-2------

e(-------------------------------------------------------------------
B(-------------------------------------------------------------------
G(-------------------------------------------------------------------
D(-------------------------------------------------------------------
A(---7---------------------------------------------------------------
E(-----0-0-0-0-0-0-0-0-0-0-0-0-0-0-0-5-5-5-5-5-5-5-5-5-5-5-5-5-5-5-5-
P.M.   . . . . . . . . . . . . . . .   . . . . . . . . . . . . . . .
[ Tab from: http://www.guitartabs.cc/tabs/s/stratovarius/phoenix_tab.html ]
e(-------------------------------------------------------------------
B(-------------------------------------------------------------------
G(-------------------------------------------------------------------
D(-------------------------------------------------------------------
A(---5-5-5-5-5-5-5-5-5-5-5-5-5-5-5-5-7-7-7-7-7-7-7-7-7-7-7-7-7-7-7-7-
E(-------------------------------------------------------------------
P.M.   . . . . . . . . . . . . . . .   . . . . . . . . . . . . . . .

e(-------------------------------------------------------------------
B(-------------------------------------------------------------------
G(-------------------------------------------------------------------
D(-------------------------------------------------------------------
A(---3-3-3-3-3-3-3-3-3-3-3-3-3-3-3-3-1-1-1-1-1-1-1-1-1-1-1-1-1-1-1-1-
E(-------------------------------------------------------------------
P.M.   . . . . . . . . . . . . . . .   . . . . . . . . . . . . . . .

e(-------------------------------------------------------------------
B(-------------------------------------------------------------------
G(-------------------------------------------------------------------
D(-------------------------------------------------------------------
A(---2-2-2-2-------------------------2-2-2-2-3-3-3-3-6-6-6-6-9-9-9-9-
E(-----------5-5-5-5-3-3-3-3-2-2-2-2---------------------------------
P.M. . . . . . . . . . . . . . . . . . . . . . . . . . . . . . . . .


Main Theme   - Riff 1 (2x)
Verse 3      - Riff 2
Pre-Chorus 3 - Riff 3
Bridge 1     - Riff 4
Chorus 2     - Riff 5
Main Theme   - Riff 1 (2x)


Bridge 2
Riff 6

e(---------------------------------------------------------------------
B(---------------------------------------------------------------------
G(---------------------------------------------------------------------
D(---------------------------------------------------------------------
A(---------------------------------------------------------------------
E(-5-6-5-3-5---5-6-5-3-5-5-6-5-3-5---5-6-5-3-5---5-6-5-3-5-5-6-5-3-5---

e(---------------------------------------------------------------------
B(---------------------------------------------------------------------
G(---------------------------------------------------------------------
D(---------------------------------------------------------------------
A(---------------------------------------------------------------------
E(-3-4-3-1-3---3-4-3-1-3-3-4-3-1-3---7-8-7-5-7---7-8-7-5-7-7-8-7-5-7---


                       Bridge 3
                       Riff 7 (10x)

e(-------------------(--------------------------------------------)
B(-------------------(--------------------------------------------)
G(-------------------(--------------------------------------------)
D(-------------------(--------------------------------------------)
A(---2-3-2-----------(--------------------------------------------)
E(---------5-3-5-3-2-(-0-0-0--0-0-0--0-0-0--0-0-0--0-0-0-0-0-0-0--)
P.M.                   . . .  . . .  . . .  . . .  . . . . . . .


Guitar Solo   (no Rhythm Guitar)
Keyboard Solo (no Rhythm Guitar)

Bridge 3 - Riff 7 (4x)

e(------)
B(------)
G(-4=---)
D(-4=---)
A(-2=---)
E(------)


Chorus 3   - Riff 5
Main Theme - Riff 1 (4x)


Coda
Riff 8

e(-----------------------------------------------------------
B(-----------------------------------------------------------
G(-----------------------------------------------------------
D(-9-7-5---7-5-----5------------9-7-5---7-5-----5------------
A(-------9-----9-7---9-7-6-7=---------9-----9-7---9-7-6-7=---
E(-----------------------------------------------------------

e(-----------------------------------------)
B(-17--15--13--12--16--13--12--10----------)
G(--5---4-----------4----------------------)
D(--5---4---7---5---4---7---5---4---2===---)
A(--3---2---7---5---2---7---5---4---2===---)
E(----------5---3-------5---3---2---0===---)




Symbol explanation:


P.M.  Palm Mute (notes marked with dot)
/     slide
=     sustained


Note: If you find any mistakes please send e-mail


Soy bien verga y yo la saque solo y que putos



Comments