Stratovarius - Night Time Eclipse Chords & Tabs

 

Night Time Eclipse Chords & Tabs

Stratovarius Chords & Tabs

Version: 1 Type: Tab 0 ratings
1 star 2 stars 3 stars 4 stars 5 stars
comments

Night Time Eclipse Tab

   
                              Night time eclipse
                            ---------------------- 
                                by Stratovarius 

                             From album "Episode"

Transcribed by Sami Rikala 

email=Rikala@pp.qnet.fi 
 
Tune  down 

acoustic 

|---7-8-5-7---5--------7-8-5-7--------7-8-5-7-----5-------7-8-5-------------------------------| 
|*-----------8---7-8-5---------8-7-5----------8-----7-8-5-------7-4--------------------------*| 
|-------------------------------------------------------------------5-------------------------| 
|-------------------------------------------------------------------- 7-----------------------| 
|*-------------------------------------------------------------------------------------------*| 
|---------------------------------------------------------------------------------------------| 

****   

4x pm.------------------------------------------------------------------------| 
|---------------------------------------------------------------------------------------------| 
|---------------------------------------------------------------------------------------------| 
|---------------------------------------------------------------------------------------------| 
|---9-10-7-9----7--------9-10-7-9--------9-10-7-9----7--------9-10-7--------------------------| 
|------------10---9-10-7----------10-9-7----------10---9-10-7--------9-6----------------------| 
|------------------------------------------------------------------------8-5------------------| 



2x pm.------------------------------------------------------------------------| 
|---------------------------------------------------------------------------------------------| 
|---------------------------------------------------------------------------------------------| 
|---9-10-7-9----7--------9-10-7-9--------9-10-7-9----7--------9-10-7-9------------------------| 
|------------10---9-10-7----------10-9-7----------10---9-10-7----------10-9-7-----------------| 
|---------------------------------------------------------------------------------------------| 
|---------------------------------------------------------------------------------------------| 


2x pm.------------------------------------------------------------------------|
|---------------------------------------------------------------------------------------------| 
|---------------------------------------------------------------------------------------------| 
|---------------------------------------------------------------------------------------------| 
|---9-10-7-9----7--------9-10-9-7--------9-10-7-9----7--------9-10-7--------------------------| 
|------------10---9-10-7----------10-9-7----------10---9-10-7--------9-6----------------------| 
|------------------------------------------------------------------------8-5------------------| 

acoustic 

1st verse 

6x 

|-----------------0-------0-------------------------------------------------------------------| 
|-7-------7-------7-------7-------10-------8-------7-------8----------------------------------| 
|---9---9---9---9---9---9---9---9----9---9---9---9---9---9---9---9----------------------------| 
|-----9-------9-------9-------9--------9-------9-------9-------9------------------------------| 
|---------------------------------------------------------------------------------------------| 
|---------------------------------------------------------------------------------------------| 
 
                                Slightly 

2x  p.m---------------------------------------------------------------------------| 
|---------------------------------------------------------------------------------------------| 
|---------------------------------------------------------------------------------------------| 
|--------------------------------------------------------------------2------------a.h---------| 
|---4--2---2---4--2---2---4--2---2---4--2---2---4--2---2---4--2---2----2-5-2-4-2-4/5----------| 
|--------2----------2----------2----------2----------3----------3-----------------------------| 
|---------------------------------------------------------------------------------------------| 


       p.m    p.m          p.m    p.m          p.m    p.m          p.m    p.m
2x    |--|   |--|         |--|   |--|         |--|   |--|         |--|   |--|   1st time 
|-------------------------------------------------------------------------------|a.h----------| 
|-------------------------------------------------------------------------------|------------| 
|-------------------------------------------------------------------------------|4-4----a.h---| 
|---2-------2-----2-----2-------2-----2-----5-------5-----5-----5-------5-----5-|----7-5-4----| 
|---2-------2-----2-----2-------2-----2-----3--3-3--3-3-3-3-----3--3-3--3-3-3-3-|-------------| 
|---0--0-0--0-0-0-0-----0--0-0--0-0-0-0-----------------------------------------|-------------| 


                                      p.m    p.m                p.m   p.m 
2x                        1st time   |--|   |--|               |--|  |--|      2nd time 
|------------------------|---------------------------------------------------|-----------------| 
|------------------------|---------------------------------------------------|-----------------| 
|------------------------|-------p-------------------------------------------|-----------------| 
|---------5--------------|-------^-------------------------a.h---------------|--7---7-5-7--7-5-7 
|--3------3------3-------|-----5---7------7-----7---5-2-5--/7-------7-----7--|--5---5-3-5--5-3-5 
|--1-------------1-------|-----0---0--0-0-0-0-0-0--------------0-0--0-0-0-0--|-----------------| 


chorus go to ****


4x p.m--------------------------------------------------------------------------------------|
|---------------------------------------------------------------------------------------------| 
|---------------------------------------------------------------------------------------------| 
|---------------------------------------------------------------------------------------------| 
|---9---9---7---7---10---9-7-9---9---9---9---7---7---10---9-7-9-7-----------------------7-----| 
|-----7---7---7---7----7-------7---7---7---7---7---7----7---------10-9--9---9---7---7---------| 
|-------------------------------------------------------------------------8---8---8---8---8---| 

[ Tab from: http://www.guitartabs.cc/tabs/s/stratovarius/night_time_eclipse_tab.html ]
 p.m------------------------------------------------| 
|---------------------------------------------------------------------------------------------| 
|---------------------------------------------------------------------------------------------| 
|---------------------------------------------------------------------------------------------| 
|---------------------------------7-----------7-9-10------------------------------------------| 
|--10-9-10---10---9---9---7---7-------10-9-10-------------------------------------------------| 
|----------8----8---8---8---8---8---8---------------------------------------------------------| 

  2x   

|---------------------------------------------------------------------------------------------| 
|---------------------------------------------------------------------------------------------| 
|---------------------------------------------------------------------------------------------| 
|---9----------2-------4-------2-------4-------7----------------------------------------------| 
|---7----------2-------2-------2-------2-------5-------7-----10-------------------------------| 
|--------------0---------------0-----------------------5--5-7-8--7--5--3--2-------------------| 
 
 2x 

|-------------------7-------------------------------------------------------------------------| 
|---8-7---7-8-7---7---7-8-7^8^7---------------------5-----------------------------------------| 
|-------9-------9---------------9---7-6---6-7-6---6--4-5-4^5^4---6----------------------------| 
|---------------------------------9-----9-------9--------------9------------------------------| 
|---------------------------------------------------------------------------------------------| 
|---------------------------------------------------------------------------------------------| 

        p.m     p.m     p.m   p.m        p.m      p.m     p.m   p.m
       |--|    |--|    |--|  |--|       |--|     |--|    |--|  |--| 
|---------------------------------------------------------------------------------------------| 
|---------------------------------------------------------------------------------------------| 
|---------------------------------------------------------------------------------------------| 
|---9-------9-------9-------9-----------------------------------------------------------------| 
|---7---7-7-7---7-7-7---7-7-7-7-7----9-------9--------9-------9-------------------------------| 
|------------------------------------7---7-7-7----7-7-7---7-7-7-7-7---------------------------| 
 

solo                                                      b 
|---------------14-15-17---15-14^15^14^15^14----14--b----17-17-15-14^15^14^15^14----14--b-----| 
|------------15------------------------------17----17-17~-------------------------17----17-17~| 
|---------14----------------------------------------------------------------------------------| 
|------16-------------------------------------------------------------------------------------| 
|---17----------------------------------------------------------------------------------------| 
|---------------------------------------------------------------------------------------------| 


|--19-19-19-19-17-17-17-17-15-15-15-15-14-14-14-14--------------------------------------------|
|--------------------------------------------------17-17-17-17-16-16-16-16--------------------| 
|--------------------------------------------------------------------------17-17-17-17--------| 
|---------------------------------------------------------------------------------------------| 
|---------------------------------------------------------------------------------------------| 
|---------------------------------------------------------------------------------------------| 


|---------------------------------------------------------------------------------------------| 
|---------------------------------------------------------------------------------------------| 
|--16-16-16-16-14-14-14-14-12-12-12-12-11-11-11-11--------------------------------------------| 
|--------------------------------------------------14-14-14-14-13-13-13-13--------------------| 
|--------------------------------------------------------------------------15-15-15-15--------| 
|---------------------------------------------------------------------------------------------| 


                               repeat   ooohhh......fade out


|-----------------------------|---------------------------------------------------------------| 
|-----------------------------|---------------------------------------------------------------| 
|-----------------------------|---------------------------------------------------------------| 
|-----------------------------|-2-----4-----2-----4-----7-------------------------------------| 
|--14-14-14-14-12-12-12-12----|-2-----2-----2-----2-----5-----7-----10------------------------| 
|-----------------------------|-0-----------0-----------------5--5-7-8----7--5--3--2----------| 


rhythm guitar for solo


|----------------------------------------------------------------------------------------------| 
|----------------------------------------------------------------------------------------------| 
|----------------------------------------------------------------------------------------------| 
|---7------7------7------7----------------------------------5------5------5------5------4------| 
|---5--5-5-5--5-5-5--5-5-5--5-5-7------7------7------7------3--3-3-3--3-3-3--3-3-3--3-3-2--2-2-| 
|-------------------------------5--5-5-5--5-5-5--5-5-5--5-5------------------------------------| 



|----------------------------------------------------------------------------------------------|
|----------------------------------------------------------------------------------------------| 
|----------------------------------------------------------------------------------------------| 
|-2--------------------2-----------------------------------------------------------------------| 
|-0--0-0-5------4------2-----------------------------------------------------------------------| 
|--------3--3-3-2--2-2-0-----------------------------------------------------------------------| 
 

                       b= bend 1 step 
                       /= slide 
                       ^= pull off 
                       ~= vibrato 
                       p.m= palm muting 
                       a.h= artificial harmonic
Comments