Stratovarius - Maniac Dance Chords & Tabs

 

Maniac Dance Chords & Tabs

Stratovarius Chords & Tabs

Version: 1 Type: Tab

Maniac Dance Tab

Maniac Dance
Tune ½ step down

Intro & Chorus
|---------------------------|---1st-ending---------------|-------------------------|
|---------------------------|----------------------------|-------------------------|
|---------------------------|----------------------------|-------------------------|
|---------------------5-----|----------------------------|-------------------------|
|-7-7p5-7-7p5-7-7p5-7---7-5-|-7-7p5-7-7p5-7-7p5----------|-7-5---5-----------------|
|---------------------------|--------------------7-6-5-3-|-----7---7-6-5-3-6-5-3-0-|

Vers
|----------------------------------------------------|
|----------------------------------------------------|
|----------------------------------------------------|
|-2--------7-7/9---------------------------------7/9-|
|-2--------5-5/7--------5-5/7--------5-5-2-------5/7-|
|-0-000..--------000..--3-3/5-555..--3-3-0-000..-----|

Bridge
|--------------------|
|--------------------|
|--------------------|
|-4--4/7-7--7--------|
|-2--2/5-5--5--8-7-5-|
|--------------6-5-3-|
[ Tab from: http://www.guitartabs.cc/tabs/s/stratovarius/maniac_dance_tab.html ]
Solo (It's easy to improvise)
|-----------------------------------------------------------------------------------------------|
|---------------------------------------------------5b..-2-3b..-2h3h2---------------------------|
|-4b..-4-2-4p2---------2---4-2-------2----2--4-2----------------------4-2-----2---4-2-------2---|
|--------------4-2-4-4---4-----2-2h4---4-4--4----4------------------------2h4---4-----4-2h4---4-|
|-----------------------------------------------------------------------------------------------|
|-----------------------------------------------------------------------------------------------|

|-15-15-15-15-17-15-17-15-17-20b(22)..-20-19-17-15-17---17p15-19p15-17p15-19p15-20p15-19p15-17p15-|
|-----------------------------------------------------15------------------------------------------|
|-------------------------------------------------------------------------------------------------|
|-------------------------------------------------------------------------------------------------|
|-------------------------------------------------------------------------------------------------|
|-------------------------------------------------------------------------------------------------|

|-19p15-17p15-19p15-20p15-19p15-17p15-19p15-17p15-19p15-20p15-19p15-17p15-|
|-------------------------------------------------------------------------|
|-------------------------------------------------------------------------|
|-------------------------------------------------------------------------|
|-------------------------------------------------------------------------|
|-------------------------------------------------------------------------|

|-----------|
|-15b~------|
|------14b~-|
|-----------|
|-----------|
|-----------|

Solo background

B - G - E (?)

Outro solo
|-----------------------------------------|
|-15b..-12--------------------------------|
|----------14h12h14-------12-----Continue-|
|-------------------12h14----14---Jamming-|
|-----------------------------------------|
|-----------------------------------------|


Tabbed by:
Rasmus Strömberg
rassi.stromberg@multi.fi