Stratovarius - Holy Light Chords & Tabs

 

Holy Light Chords & Tabs

Stratovarius Chords & Tabs

Version: 2 Type: Tab 0 ratings
1 star 2 stars 3 stars 4 stars 5 stars
comments

Holy Light Tab

E-]-------------10-12-13-12-10-12-10----------------10-12-13-12-10-12-10-------|
B-]----10-12-13----------------------13-12-10-12-13----------------------13-12-|
G-]o---------------------------------------------------------------------------|
D-]o---------------------------------------------------------------------------|
A-]----------------------------------------------------------------------------|
E-]----------------------------------------------------------------------------|


                                               
E-]-------------10-12-13-12-10-12-10-------------------------------------------|
B-]----10-12-13----------------------13-12-10-9-10-9---------------------------|
G-]o-------------------------------------------------10-9-7--------------------|
D-]o--------------------------------------------------------10-9---------------|
A-]----------------------------------------------------------------------------|
E-]----------------------------------------------------------------------------|

Riff 2  two times
                                                           
E-]-------------10-12-13-12-10-12-10---------------8-10-12-10-8-10-8-----------|
B-]----10-12-13----------------------13-12-8-10-12-------------------12-10-6-8-|
G-]o---------------------------------------------------------------------------|
D-]o---------------------------------------------------------------------------|
A-]----------------------------------------------------------------------------|
E-]----------------------------------------------------------------------------|


                                     
E-]-------7-8-10-8-7-8-7------------5-7-8-7-5----------------------------------|
B-]----10----------------10-8-5-7-9-----------9--------------------------------|
G-]o---------------------------------------------------------------------------|
D-]o---------------------------------------------------------------------------|
A-]----------------------------------------------------------------------------|
E-]----------------------------------------------------------------------------|




Riff 3  one time
                                p                              Hold
E-]-------------10-12-13-12-10-12-10-------------------------------------------|
B-]----10-12-13----------------------13-12-10-9-10-9---------------------------|
G-]o-------------------------------------------------10-9-7--------------------|
D-]o--------------------------------------------------------10-9---------------|
A-]----------------------------------------------------------------------------|
E-]----------------------------------------------------------------------------|


[ Tab from: http://www.guitartabs.cc/tabs/s/stratovarius/holy_light_tab_ver_2.html ]
                                                
E-]----------------------------------------------------------------------------|
B-]----------------------------------------------------------------------------|
G-]o----------7-9-10-9-7-9-7---------------------------------------------------|
D-]o---7-9-10----------------10-9-7-6-7-6--------------------------------------|
A-]---------------------------------------8-7-5--------------------------------|
E-]---------------------------------------------8-7----------------------------|




Riff 4

E-]----------------------------------------------------------------------------|
B-]------------------------------5-3-------------------------------------------|
G-]o----------5-4--------------5-----4-----------------------------------------|
D-]o--------7-----6----------2---------5-3---2---5-2-3---7-3-6---9-6-7-9-7-6-7-|
A-]-------3---------7-5----3-------------------3-------5-------7---------------|
E-]-----5----------------------------------------------------------------------|



E-]----------------------------------------------------------------------------|
B-]----------------------------------------------------------------------------|
G-]o--------------------------------------------------10----13-10---16---------|
D-]o----2---5-2-3---7---6---9-6-9----12-9-12----15-12----12--------------------|
A-]-------3-------5---5---7-------11---------14--------------------------------|
E-]----------------------------------------------------------------------------|



Riff 5

E-]----------17-15-13----------------15-13-12----------------13-12-10----------|
B-]----14-17----------17-15-13-12-15----------15-13-12-10-13----------13-12-10-|
G-]o---------------------------------------------------------------------------|
D-]o---------------------------------------------------------------------------|
A-]----------------------------------------------------------------------------|
E-]----------------------------------------------------------------------------|



E-]---------12-10-8------------------------------------------------------------|
B-]----9-12---------12-10------------------------------------------------------|
G-]o---------------------------------------------------------------------------|
D-]o---------------------------------------------------------------------------|
A-]----------------------------------------------------------------------------|
E-]----------------------------------------------------------------------------|



Riff 6

E-]----------------------------------------------------------------------------|
B-]----9-10-12-----------------------------------------------------------------|
G-]o-----------7-9-10-------------------------------7-9-10----9----13----16----|
D-]o------------------6-7-9-------------------6-7-9----------------------------|
A-]-------------------------5-7-8-------5-7-8----------------------------------|
E-]-------------------------------4-5-7----------------------------------------|


        
E-]----------------------------------------------------------------------------|
B-]-----17-(19)-17-15----------------------------------------------------------|
G-]o------------------17-------------------------------------------------------|
D-]o---------------------------------------------------------------------------|
A-]----------------------------------------------------------------------------|
E-]----------------------------------------------------------------------------|
Comments