Stratovarius - Greensleeves Chords & Tabs

 

Greensleeves Chords & Tabs

Stratovarius Chords & Tabs

Version: 3 Type: Tab

Greensleeves Tab

e|----------------------------------------------------------------------------|
B|----------------------------------------------------------------------------|
G|-12--14--16--17--16--14------------------12---------------------------------|
D|-------------------------16--12--14--16----14-14--13-14-16-12--9------------|
A|----------------------------------------------------------------------------|
E|----------------------------------------------------------------------------|


e|----------------------------------------------------------------------------|
B|----------------------------------------------------------------------------|
G|--12-13--15-17--18--17--15--------------------------------------------------|
D|----------------------------17--13--15--17--18--17--15--14--12--14--15--15--|
A|----------------------------------------------------------------------------|
E|----------------------------------------------------------------------------|
[ Tab from: http://www.guitartabs.cc/tabs/s/stratovarius/greensleeves_tab_ver_3.html ]