Stratovarius - Greensleeves Chords & Tabs

 

Greensleeves Chords & Tabs

Stratovarius Chords & Tabs

Version: 2 Type: Tab 0 ratings
1 star 2 stars 3 stars 4 stars 5 stars
comments

Greensleeves Tab

Band:Stratovarius
Song:Greensleeves
Tuning: Standard


Guitar one:

-------6-76--------------------|
-7--9--------9--6--------------|
------------------6------------|
-------------------------------|
-------------------------------|
-------------------------------|

-------------------------------|
----6--7-----------6-----------|
-8-------8-8--7-8-----7--------|
------------------------8------|
-------------------------------|
-------------------------------|

---------6-76------------------|
---7--9--------9--6------------|
-8------------------6----------|
-------------------------------|
-------------------------------|
-------------------------------|

-------------------------------|
---6-7--6----------------------|
-8--------8-7--5-7-8---8-------|
-------------------------------|
-------------------------------|
-------------------------------|

repeat, then:

-9--9-8-6------------|
----------9-6--------|
--------------6------|
---------------------|
---------------------|
---------------------|

-------------------------------|
----6--7-----------6-----------|
-8-------8-8--7-8-----7--------|
------------------------8------|
-------------------------------|
-------------------------------|

-9--9-8-6------------|
----------9-6--------|
--------------6------|
---------------------|
---------------------|
---------------------|

-------------------------------|
---6-7--6----------------------|
-8--------8-7--5-7-8---8-------|
-------------------------------|
-------------------------------|
-------------------------------|

---------6-76----------------------|
---7--9--------9--6----------------|
-8-------------------6-------------|
-----------------------------------|
-----------------------------------|
-----------------------------------|
[ Tab from: http://www.guitartabs.cc/tabs/s/stratovarius/greensleeves_tab_ver_2.html ]
-------------------------------|
----6--7-----------6-----------|
-8-------8-8--7-8-----7--------|
------------------------8------|
-------------------------------|
-------------------------------|

---------6-76------------------|
---7--9--------9--6------------|
-8------------------6----------|
-------------------------------|
-------------------------------|
-------------------------------|

-------------------------------|
---6-7--6----------------------|
-8--------8-7--5-7-8---8-------|
-------------------------------|
-------------------------------|
-------------------------------|


Guitar two:

-------------------------------|
----7--------------------------|
-8-----6------8----------------|
----------8------9---8---------|
-------------------------------|
-------------------------------|

-6-7-6----------|
-------9-7-6----|
----------------|
----------------|
----------------|
----------------|

-------------------------------|
----7--------------------------|
-8-----6---------7--8---8------|
----------8--9-----------------|
-------------------------------|
-------------------------------|

-------------------------------|
-7--7--------------------------|
-------6-----8-----------------|
----------8-----9--8-----------|
-------------------------------|
-------------------------------|

-6-7-6----------|
-------9-7-6----|
----------------|
----------------|
----------------|
----------------|

--------------------------|
-7--7---------------------|
-------6------------------|
----------8--9--8---------|
-------------------6--6---|
--------------------------|

-------------------------------|
----7--------------------------|
-8-----6------8----------------|
----------8------9---8---------|
-------------------------------|
-------------------------------|

-6-7-6----------|
-------9-7-6----|
----------------|
----------------|
----------------|
----------------|

-------------------------------|
----7--------------------------|
-8-----6-----------------------|
----------8--9--8--------------|
-------------------6--6--------|
-------------------------------|
Comments