Stratovarius - Forever Free Chords & Tabs

 

Forever Free Chords & Tabs

Stratovarius Chords & Tabs

Version: 1 Type: Bass Tab 0 ratings
1 star 2 stars 3 stars 4 stars 5 stars
comments

Forever Free Bass Tab

intro            
|------------------------------------------------------------------------------------------|
|----2-----2-4----4-5-----5-7-----10-9----2-4----4-5-5-4-5-2-----2-4-----4-5-5-7-5-4-5-2---|
|------------------------------------------------------------------------------------------|
|------------------------------------------------------------------------------------------|
        final del intro
|----------------------||
|----2-4----4-5-5-4-5-*||
|---------------------*||
|----------------------||


verso
|-----------------------------------------------------------------------------~-------------|
|------------------------------------------------------------------------------------------*|
|----------5----------------2--------------5-----------------------------------------------*|
|--2--------------2----------------2---------------2----------------------------------------|


|------------------------------------|-------------------------------------------|----------|
|------------------------------------|-------------------------------------------|----------|
|-7-7-7-7-7-7-7-7-7-3-3-3-3-3-3-3-3-3|-4-4-4-4-4-4-4-4-4-5-5-5-5-5-5-6-6-6-6-6-6-|--5-------|
|------------------------------------|-------------------------------------------|----------|

                                                                           
|-------------------------------------------------------------------------------------------|
|-------------------------------------------------------------------------------------------|
|---------5---------------2----------------5------------------------------------------------|
|-2--------------2----------------2---------------2-----------------------------------------|

coro
|-------------------------------------------------------------------------------------------|
|-------------------------------------------------------------------------------------------|
|---------3*------5*----------------3*------5*-------------3*------5*------6*-----3*-----5*-|
|-3*------------------------3*----------------------0*--------------------------------------|

intro
|-------------------------------------------------------------------------------------------|
|----2-----2-4-----4-5-----5-7-----10-9-----2-4-----4-5-5-4-5-2-----2-4-5-5-7-5-4-5-2-------|
|-------------------------------------------------------------------------------------------|
|-------------------------------------------------------------------------------------------|

|-------------------------------||
|----2-----2-4-----4-5-5-4-5---*||
|------------------------------*||
|-------------------------------||
se repite desde el verso

[ Tab from: http://www.guitartabs.cc/tabs/s/stratovarius/forever_free_btab.html ]
la parte de la guitarra 
|-------------------------------------------------------------------------------------------|
|------------------------------------------------------------------------------------------*|
|----------5*-----------------2*------------------5*---------------------------------------*|
|--2*---------------2*------------------2*-----------------2*-------------------------------|


     
teclado solo 4 vecese
|-------------------------------------------------------------------------------------------|
|-------------------------------------------------------------------------------------------|
|-------------------------------------------------------------------------------------------|
|---2--2-2-2-2-2-2-2--2-2-2-2-2-2-2--2-2-2-2-2-2-2--0--0------------------------------------|

   
 solo guitarra2
|-------------------------------------------------------------------------------------------|
|------------------------------------------------------------------------------------------*|
|-----------5*------------------2*------------------5*-------------------------------------*|
|-2*-----------------2*-------------------2*----------------2*------------------------------|
se repite todas la veces necesarias
		

|-------------------------------------------------------------------------------------------|
|-------------------------------------------------------------------------------------------|
|---------3*-----5*---------------3*------5*--------------3*-----5*----6*----3*-----5*------|
|-3*----------------------3*----------------------0*----------------------------------------|


chorus #2
|-------------------------------------------------------------------------------------------|
|-------------------------------------------------------------------------------------------|
|------------5*-----7*-------------5*-------7*-------------5*-----7*-----8*-----5*------7*--|
|----5*---------------------5*---------------------2*---------------------------------------|

   
intro
|-------------------------------------------------------------------------------------------|
|--2-----2-4-----4-5-----5-7-----10-9-----2-4-----4-5-5-4-5-2------2-4------4-5-5-7-5-4-5-2-|
|-------------------------------------------------------------------------------------------|
|-------------------------------------------------------------------------------------------|


|------------------------||
|-----------------------*||
|----2-4-----4-5-5-4-5--*||
|------------------------||

aki esta la tab de forever free ke les prometi asike sakenla bn no ma po
markolix si se kieren contactar con migo 
marcovalenzuela14@hotmail.com
viva chile mierda!!!!!!!!!!!!!!!
Comments