Stratovarius - Eagleheart Chords & Tabs

 

Eagleheart Chords & Tabs

Stratovarius Chords & Tabs

Version: 1 Type: Tab 0 ratings
1 star 2 stars 3 stars 4 stars 5 stars
comments

Eagleheart Tab

   
hi my name is luis jose,this is my first participation
stratovarius
eagleheart

intro-1

e-----------------------------------------------------------------------------|
b--------------------------------------------------------11-8/9--9--6--4--6/8-|
g--11/12--12--13/15--15--13--12--10--12/13--13--12--10--8---------------------|
d-----------------------------------------------------------------------------|
a-----------------------------------------------------------------------------|
e-----------------------------------------------------------------------------|

e-----------|
b--9--8--6--|
g-----------|
d-----------|
a-----------|
e-----------|
[ Tab from: http://www.guitartabs.cc/tabs/s/stratovarius/eagleheart_tab.html ]
2part

e----------------------------------------------------------------------------|
b--------------------------------------------------------11-8/9--9--6--4--4--|
g--11/12--12--13/15--15--13--12--10--12/13--13--12--10--8--------------------|
d----------------------------------------------------------------------------|
a----------------------------------------------------------------------------|
e----------------------------------------------------------------------------|


e----------------|
b--4--6/9--6--4--|
g----------------|
d----------------|
a----------------|
e----------------|

chords

C-A#-G#-D#-A#
Comments