Stratovarius - Coming Home Chords & Tabs

 

Coming Home Chords & Tabs

Stratovarius Chords & Tabs

Version: 1 Type: Tab 0 ratings
1 star 2 stars 3 stars 4 stars 5 stars
comments

Coming Home Tab

   
coming home
artist : stratovarius
albun : visions
song : coming home
tab by alvaro rios

Tune  down
Acoustic

Intro riff
|3------3-2-0-----------0-----0----------------------------0------3----2------2h3p2------0----|
|---0----------3----3-----1-----3-1--0----0--1------1-0-------1-----1-----3---------3------3--|
|-----0----------4----------0----------0--------2-------2-------0-----------2---------2------2|
|2------------------------------------------------2--------------------0----------------0-----|
|--------------2--------3--------------------0-------------3----------------------------------|
|------------------------------------3--------------------------------------------------------|


|-0-2--3------3-2-0-----------0-----0----------------------------0------3----/5------5--------|
|---------0----------3----3-----1-----3-1--0----0--1------1-0-------1-----1------3-----3------|
|-----------0----------4----------0----------0--------2-------2-------0------------2-----2----|
|------2------------------------------------------------2---------------------0---------------|
|--------------------2--------3--------------------0-------------3----------------------------|
|------------------------------------------3--------------------------------------------------|



1st verse with intro riff 

then

|-3------3----5p3---2h3p2----3------3----5p3---2h3p2----3-----3---5p3---2h3p2----3p2----------|
|----1-----1------0-------3-----0-----0------0-------3----1-----1-----0--------------3--------|
|------0--------------------------0-------------------------0-------------------2------2------|
|----------------------------2------------------------------------------------0----------0----|
|-3-----------------------------------------------------3-------------------------------------|
|---------------------------------------------------------------------------------------------|


Riff2
        p.m. 
2x
|---------------------------------------------|-----------------------------------------------|
|---------------------------------------------|-----------------------------------------------|
|---------------------------------------------|-----------------------------------------------|
|--9-----------------7-------7-----4-5-4------|--5-------4------------------------------------|
|--7-----7-7-10--9-7-5----7--5---5-------5----|--3-------2------------------------------------|
|--0----------------------5-------------------|-----------------------------------------------|


|----0-------0-------0-------0-------0-------0-------0-------0--------------------------------|
|------0-------0-------0-------0-------0-------0-------0-------0------------------------------|
|--------0-------0-------0-------0-------0-------0-------0-------0----------------------------|
|----------7-------5-------4-------5-------7-------5-------4----------------------------------|
|---------------------------------------------------------------------------------------------|
|--0------------------------------------------------------------------------------------------|



2nd verse


   p.m.....			      p.m.....		
|---------------------------------------------------------------------------------------------|
|---------------------------------------------------------------------------------------------|
|---------------------------------------------------------------------------------------------|
|--5-5-5-5-5--(5)----------------------5-5-5-5-5--(5)--------7--(7)---------------------------|
|--3-3-3-3-3--(3)--------2--(2)--------3-3-3-3-3--(3)--------5--(5)---------------------------|
|------------------------0--(0)---------------------------------------------------------------|


Chorus
	p.m.           
|---------------------------------------------|-----------------------------------------------|
|---------------------------------------------|-----------------------------------------------|
|---------------------------------------------|-----------------------------------------------|
|--9-----------------7-------7-----4-5-4------|--5--(5)-----4--(4)----------------------------|
|--7-----7-7-10--9-7-5----7--5---5-------5----|--3--(3)-----2--(2)----------------------------|
|--0----------------------5-------------------|-----------------------------------------------|


[ Tab from: http://www.guitartabs.cc/tabs/s/stratovarius/coming_home_tab.html ]
2x              p.m....   p.m..........   p.m.. 3rd time 
|----------------------------------------------|----------------------------------------------|
|----------------------------------------------|----------------------------------------------|
|----------------------A.H---------------------|----------------------------------------------|
|--5------7-------------5---------------2------|-5-----7----------7----9----7----5------4-----|
|--3------5------------------------------------|-3-----5------5---5----7----5----3------2-----|
|---------------3-2-0-0---0-0-0-3-2-0-0---0-0-0|--------------3-------------------------------|



Solo  

*Harmonise and use bar*
|------------------------------12-14-15-14-12h14p12-------------------15----------------------|
|--------------15b----15br-15-----------------------15-12-15b--15--13----13-12--12br-p10\8\7--|
|--*17\---------------------------------------------------------------------------------------|
|--*17\\--------------------------------------------------------------------------------------|
|------\\-------------------------------------------------------------------------------------|
|---------------------------------------------------------------------------------------------|




|----------17-17/19----20br-20-19-17-19-20-19-17-19-17----------------17-19-20-19-17-19-17----|
|-17-19-20----------17---------------------------------20-19-17-19-20----------------------20-|
|---------------------------------------------------------------------------------------------|
|---------------------------------------------------------------------------------------------|
|---------------------------------------------------------------------------------------------|
|---------------------------------------------------------------------------------------------|


|-------------17-19-20-19-17-19-17------------------------------------------------------------|
|-19-17-19-20----------------------20-19-17-20-19-17------------------------------------------|
|----------------------------------------------------19-17-16---------------------------------|
|-------------------------------------------------------------19-17-16------------------14-16-|
|----------------------------------------------------------------------19-17-16-14-16-17------|
|---------------------------------------------------------------------------------------------|


|---------------------------------------------------------------------------------------------|
|------------------------------------------------------------------17-19-20-------------------|
|---------------------------------------16-17-19----------16-17-19-------------------16-17-19-|
|17----------16-17-19----------16-17-19----------16-17-19-------------------16-17-19----------|
|---16-17-19----------16-17-19----------------------------------------------------------------|
|---------------------------------------------------------------------------------------------|



|----------17-19~--19p17h19-------------------------------------------------------------------|
|-17-19-20------------------20-19-17-------Bar------------------------------------------------|
|------------------------------------19-17-16~\-----------------------------------------------|
|----------------------------------------------\----------------------------------------------|
|-----------------------------------------------\---------------------------------------------|
|------------------------------------------------\--------------------------------------------|


Repeat....end 
        p.m.....			       p.m.	
|---------------------------------------------------------------------------------------------|
|---------------------------------------------------------------------------------------------|
|---------------------------------------------------------------------------------------------|
|--9-----------------7-------7-----4-5-4---5--------0-2-0---4---------------------------------|
|--7-----7-7-10--9-7-5----7--5---5-------5-3----3-3-------3-2---2-----------------------------|
|--0----------------------5---------------------------------------5-3-2-----------------------|


				~= Vibrato
				p= Pull off			
				h= Hammer on
				b= Bend 1 step
			       br= Bend then release
				/= Slide up
				\= Slide down
			      A.H= Artificial harmonic
Comments