Strata - Piece By Piece Chords & Tabs

 

Piece By Piece Chords & Tabs

Strata Chords & Tabs

Version: 1 Type: Tab 0 ratings
1 star 2 stars 3 stars 4 stars 5 stars
comments

Piece By Piece Tab

   
-------------------------------------------------------------------------------
			     Piece by Piece - Strata
-------------------------------------------------------------------------------

Tabbed by: Mixxermikey
Email: sirmixxalittle@yahoo.com

Tuning: Db, Ab, Db, Bb, Gb, Eb



-Listen to song for exact timing-
-A couple of notes about the bridge, but other than that, exactly as written-
-Please email me your comments-

Intro 1

|--------------------------------------------------------------|
|--------------------------------------------------------------|
|--------------------------------------------------------------|
|--------------------------------------------------------------|
|--------------------------------------------------------------|
|-0---10---12---0---12---2---0---10---12---0---12---2---0---3--|

|--------------------------------------------------------|
|--------------------------------------------------------|
|--------------------------------------------------------|
|---------------------------------------------------3-3--|
|---------------------------------------------------3-3--|
|-0---10---12---0---12---2---0---10---12---0---12---3-3--|
                                                    . .
   


Intro 2

|-------------------------------------------|
|-------------------------------------------|
|-------------------------------------------|
|-0---10---12-12---0---10---12-0-12\---0-3--|    x 3
|-0---10---12-12---0---10---12-0-12\---0-3--|
|-0---10---12-12---0---10---12-0-12\---0-3--|

|------------------------------------------|
|------------------------------------------|
|-0---10---12-12---0---10---12-12\--0--10--|
|-0---10---12-12---0---10---12-12\--0---8--|
|-0---10---12-12---0---10---12-12\--0---8--|






Verse 1

|-----------------------------------------------------------------------|
|-----------------------------------------------------------------------|
|-----------------------------------------------------------------------|
|-0---12---15---0---12---14---0---10---12---0---9---10---0---5---7---9--|  x 5
|-----------------------------------------------------------------------|
|-----------------------------------------------------------------------|
  .   .    .    .   .    .    .    .    .   .    .   .   .   .   .   .

|-------------------------------------------------------------|
|-------------------------------------------------------------|
|------------------------------------------------------14-14--|
|-0---12---15---0---12---14---0---10---12---9b9\5------12-12--|
|------------------------------------------------------12-12--|
|------------------------------------------------------12-12--|
  .   .     .   .   .    .    .   .     .   

|-----------------------------------------------------------------------|
|-----------------------------------------------------------------------|
|-----------------------------------------------------------------------|
|-0---12---15---0---12---14---0---10---12---0---9---10---0---5---7---9--|
|-----------------------------------------------------------------------|
|-----------------------------------------------------------------------|




Chorus 1

|-------------------------------------------|
|-------------------------------------------|
|-------------------------------------------|
|-0---10---12-12---0---10---12-0-12\---0-3--|  x 3
|-0---10---12-12---0---10---12-0-12\---0-3--|
|-0---10---12-12---0---10---12-0-12\---0-3--|

|-------------------------------------------|
|-------------------------------------------|
|-------------------------------------------|
|-0---10---12-12---0---10---12-0-12\---3-3--|
|-0---10---12-12---0---10---12-0-12\---3-3--|
|-0---10---12-12---0---10---12-0-12\---3-3--|
                                       . . 
|-------------------------------------------|
|-------------------------------------------|
|-------------------------------------------|
|-0---10---12-12---0---10---12-0-12\---0-3--|  x 3
|-0---10---12-12---0---10---12-0-12\---0-3--|
|-0---10---12-12---0---10---12-0-12\---0-3--|

|--------------------------------------------|
|--------------------------------------------|
|-0---10---12-12---0---10---12-0-12--0---10--|
|-0---10---12-12---0---10---12-0-12--0----8--|
|-0---10---12-12---0---10---12-0-12--0----8--|



Verse 2
[ Tab from: http://www.guitartabs.cc/tabs/s/strata/piece_by_piece_tab.html ]
|-----------------------------------------------------------------------|
|-----------------------------------------------------------------------|
|-----------------------------------------------------------------------|
|-0---12---15---0---12---14---0---10---12---0---9---10---0---5---7---9--|    x 5
|-----------------------------------------------------------------------|
|-----------------------------------------------------------------------|
  .   .    .    .   .    .    .    .    .   .    .   .   .   .   .   .

|--------------------------------------------------|
|--------------------------------------------------|
|--------------------------------------------------|
|-0---12---15---0---12---14---0---10---12---9b9\5--|
|--------------------------------------------------|
|--------------------------------------------------|
  .   .    .    .    .   .    .    .    . 

|----------------------------|      |--------|
|----------------------------|      |--------|
|----------------------------|      |-14-14--|
|-14---0---15---0---12---14--|  x9  |-12-12--|
|----------------------------|      |-12-12--|
|----------------------------|      |-12-12--|
  .    .    .   .   .     . 

|-----------------------------------------------------------------------|
|-----------------------------------------------------------------------|
|-----------------------------------------------------------------------|
|-0---12---15---0---12---14---0---10---12---0---9---10---0---5---7---9--|
|-----------------------------------------------------------------------|
|-----------------------------------------------------------------------|



Chorus 2

|-------------------------------------------|
|-------------------------------------------|
|-------------------------------------------|
|-0---10---12-12---0---10---12-0-12\---0-3--|   x 3
|-0---10---12-12---0---10---12-0-12\---0-3--|
|-0---10---12-12---0---10---12-0-12\---0-3--|

|-------------------------------------------|
|-------------------------------------------|
|-------------------------------------------|
|-0---10---12-12---0---10---12-0-12\---3-3--|
|-0---10---12-12---0---10---12-0-12\---3-3--|
|-0---10---12-12---0---10---12-0-12\---3-3--|
                                       . . 
|-------------------------------------------|
|-------------------------------------------|
|-------------------------------------------|
|-0---10---12-12---0---10---12-0-12\---0-3--|   x 3
|-0---10---12-12---0---10---12-0-12\---0-3--|
|-0---10---12-12---0---10---12-0-12\---0-3--|

|---------------------------------------------|
|---------------------------------------------|
|-0---10---12-12---0---10---12-0-12--0--10--12|
|-0---10---12-12---0---10---12-0-12--0---8--10|
|-0---10---12-12---0---10---12-0-12--0---8--10|


Bridge

|---------------------------------------------------------|
|---------------------------------------------------------|
|-----14--14--12--12--12--14--12--------------------------|
|-12------------------------------12--12--15--15--14--14--|  x 4
|---------------------------------------------------------|
|---------------------------------------------------------|

^^ These are the notes and the general pattern, but it changes up everytime ^^

|------------------------|
|------------------------|
|------------------------|
|-12-------14-------15/--|
|-12-------14-------15/--|
|-12-------14-------15/--|

^^These three chords strummed so fast the strumming is barely distinguishable, then
slide up before the chourus


Chorus 3

|-------------------------------------------|
|-------------------------------------------|
|-------------------------------------------|
|-0---10---12-12---0---10---12-0-12\---0-3--|  x 3
|-0---10---12-12---0---10---12-0-12\---0-3--|
|-0---10---12-12---0---10---12-0-12\---0-3--|

|-------------------------------------------|
|-------------------------------------------|
|-------------------------------------------|
|-0---10---12-12---0---10---12-0-12\---3-3--|
|-0---10---12-12---0---10---12-0-12\---3-3--|
|-0---10---12-12---0---10---12-0-12\---3-3--|
                                       . . 

|-------------------------------------------|
|-------------------------------------------|
|-------------------------------------------|
|-0---10---12-12---0---10---12-0-12\---0-3--|   x 3
|-0---10---12-12---0---10---12-0-12\---0-3--|
|-0---10---12-12---0---10---12-0-12\---0-3--|



Outtro

|-------------------------------------------|
|-------------------------------------------|
|-------------------------------------------|
|-0---10---12x-12x---0---10---12-12x---0-3--|  x 3
|-0---10---12x-12x---0---10---12-12x---0-3--|
|-0---10---12x-12x---0---10---12-12x---0-3--|

|-------------------------------------------|
|-------------------------------------------|
|-------------------------------------------|
|-0---10---12x-12x---0---10---12-12x---3-3--|
|-0---10---12x-12x---0---10---12-12x---3-3--|
|-0---10---12x-12x---0---10---12-12x---3-3--|



| /  slide up
| \  slide down
| b  bend
| .  palm muting
| x  quick stop
===============================================================================
Comments