Strata - Never There Chords & Tabs

 

Never There Chords & Tabs

Strata Chords & Tabs

Version: 2 Type: Tab 0 ratings
1 star 2 stars 3 stars 4 stars 5 stars
comments

Never There Tab

This tab is for Never There,
Tuning is Db, Listen to the song for the exact timing and
technique.
Hope you guys like It,

Please Let me know of any corrections 
or anything i missed or just to let me know this 
tab is good. I am always looking to improve,
Thanks 

andrew_bunde@dell.com


TUNING- Db, (HALF STEP DOWN IN DROP D)

Intro/ Verse (Clean) - Repeat as many times as it takes,
it takes a while to get used to the timing.

E|-----------------------------------|
B|-----------------------------------|
G|--2-2-2-2-3-3-3-3-2-2-2-2-5-5-3-3--|
D|-0-0-0-0-0-0-0-0-3-3-3-3-3-3-3-3---| Repeat many times
A|-----------------------------------|
D|-----------------------------------|


Chorus- Distorted
[ Tab from: http://www.guitartabs.cc/tabs/s/strata/never_there_tab_ver_2.html ]
E|-------------------------------------------------------|
B|-------------------------------------------------------|
G|--10--------12-----------------------------------------|
D|--x--(8x)---x--(8x)---8-(8x)----10-(8x)----------------|
A|--8---------10--------8---------10---------------------|
D|--0---------0---------8---------10---------------------|

Breakdown- Distorted- The breakdown ends about halfway through
the 4th time

E|---------------------------------------------|
B|---------------------------------------------|
G|----------------------------10101010\9999----|
D|-8--0--0--0-8-0--0--08-0-0--x-x-x-x-\xxxx----|
A|-8--0--0--0-8-0--0--08-0-0--8-8-8-8-\7777----|
E|-8--0--0--0-8-0--0--08-0-0--x-x-x-x-\xxxx----|

ARRANGE THESE PARTS AND YOU HAVE THE WHOLE SONG, once you get
the intro/verse you have nothing to worry bout.
Comments