Strata - Never There Chords & Tabs

 

Never There Chords & Tabs

Strata Chords & Tabs

Version: 1 Type: Tab 0 ratings
1 star 2 stars 3 stars 4 stars 5 stars
comments

Never There Tab

Artist: Strata
Song: Never There
Album: Strata
Tuning: EADGBE (Standard)

(* or X)= Mute

 Intro/Verse: Clean
|-----------------------------------------|
|-----------------------------------------|
|-----------------------------------------|
|----6-6-6-6-7-7-7-7-6-6-6-6-9-9-7-7------|
|---4-4-4-4-4-4-4-4-4-4-4-4-4-4-4-4-------|
|-----------------------------------------|
[ Tab from: http://www.guitartabs.cc/tabs/s/strata/never_there_tab.html ]
Chorus: Distortion
|-----------------------------------------|
|-----------------------------------------|
|---9------11-----------------------------|
|---X x8---X x8-----7------9--------------|
|---7------9--------7 x8---9 x8-----------|
|-------------------5------7--------------|

Breakdown/Interlude:
|-------------------------------------------|
|-------------------------------------------|
|--------------------------------9-----8----|
|--7-4*4*-4*-7-4*4*-4*-7-4*------X x8--X x8-|
|--7-4*4*-4*-7-4*4*-4*-7-4*------7-----6----|
|--5-4*4*-4*-5-4*4*-4*-5-4*-----------------|

Last Time:
|---------------------------|
|---------------------------|
|---------------------------|   Now go back into the Chorus
|--7-4*4*-4*-7-4*4*-4*---7--|          until the end.
|--7-4*4*-4*-7-4*4*-4*---7--|
|--5-4*4*-4*-5-4*4*-4*---5--|

I'm pretty sure this is 100% right.  Enjoy.
Comments