Strata - I Will Breath Fire Chords & Tabs

 

I Will Breath Fire Chords & Tabs

Strata Chords & Tabs

Version: 1 Type: Tab 0 ratings
1 star 2 stars 3 stars 4 stars 5 stars
comments

I Will Breath Fire Tab

   
-------------------------------------------------------------------------------
			    i will breath fire - strata
-------------------------------------------------------------------------------
Tabbed by: jesus h
Email: def7ron@aol.com
i really got into them and i thought this was the best song on the cd. i searched and 
the net but could not find this song on any site, so i decided to do the dirty work 
its not a hard song but i still do not have the attention span to figure out the intro. Have fun.
[ Tab from: http://www.guitartabs.cc/tabs/s/strata/i_will_breath_fire_tab.html ]
Tuning:dadgbe
chorus
e|----------------------------------------------------------------------------------|
B|----------------------------------------------------------------------------------|
G|-10/--11------9-------------------------------------------------------------------|
D|-x/----x------7-------------------------------------------------------------------|
A|-8/----9------7-------------------------------------------------------------------|
d|--------------7-------------------------------------------------------------------|
verse
e|----------------------------------------------------------------------------------|
B|----------------------------------------------------------------------------------|
G|-----6/---8\--5-------------------------------------------------------------------|
D|-----x----x---x-------------------------------------------------------------------|
A|-----4/---6\--3-------------------------------------------------------------------|
d|----------------------------------------------------------------------------------|
after second chorus diddy
e|-----------------------------------------------------------------------------|
B|-----------------------------------------------------------------------------|
G|----6/--8\--5-----6/10\5-----------------------------------------------------|
D|-----------------------------------------------------------------------------|
A|-----------------------------------------------------------------------------|
d|-----------------------------------------------------------------------------|
bridge
e|-----------------------------------------------------------------------------|
B|-----------------------------------------------------------------------------|
G|--11----------10-------9-------8---------------------------------------------|
D|---9------------8------7-------6---------------------------------------------|
A|---9------------8------7-------6---------------------------------------------|
d|---9------------8------7-------6---------------------------------------------|

| /  slide up
| \  slide down
| h  hammer-on
| p  pull-off
| ~  vibrato
| +  harmonic
| x  Mute note
===============================================================================
Comments