Stranglers - Princess Of The Streets Chords & Tabs

 

Princess Of The Streets Chords & Tabs

Stranglers Chords & Tabs

Version: 1 Type: Tab 0 ratings
1 star 2 stars 3 stars 4 stars 5 stars
comments

Princess Of The Streets Tab

Stranglers-princess of the streets
tabbed by:blitzkreigbob (blitzkreigbob@hotmail.com)

this is a fairly easy solo to play but it also sounds pretty good too so i thought i better tab it.

for best sound play it with distortion and some sort of delay/reverb effect

e--------------------------------------------------------|
B10b11-10b11r10-8--------------------8-10-11-11b13r11-10-|
G-----------------------------7-8-10---------------------|
D-------------------10--7-8-10---------------------------|
A--------------------------------------------------------|
E--------------------------------------------------------|
[ Tab from: http://www.guitartabs.cc/tabs/s/stranglers/princess_of_the_streets_tab.html ]
e10-11-13p11p10-13p11p10-13p11p10------------------------|
B---------------------------------10-11-11b13r11b13r11-10|
G--------------------------------------------------------|
D--------------------------------------------------------|
A--------------------------------------------------------|
E--------------------------------------------------------|

e--------------------------------------------------------|
B--------------------------------------------------------|
G-12-10--------------------------------------2-3-5-------|
D-------13-12-10-------------------------3-5-------------|
A----------------13-12-------------3-5-6-----------------|
E----------------------------3-5-6-----------------------|

e--------------------------------------------------------|
B--3-4-6-6b8-6b8-6b8-6-4-3-------------------------------|
G--------------------------5-3-2-3-2-3-2-3-2-3-2-3-2-3/--|
D--------------------------------------------------------|
A--------------------------------------------------------|
E--------------------------------------------------------|

well thats the best i can do(for my first tab).hope you like it
Comments