Stranglers - Peaches Chords & Tabs

 

Peaches Chords & Tabs

Stranglers Chords & Tabs

Version: 6 Type: Bass Tab

Peaches Bass Tab

The stranglers Peaches bass tab
Tabbed by Liam
Email: guitar_rocker_47@hotmail.com
Tuning standard

I think this is the bass bit, I just like the cool little riff and 
I worked it out for you lot!
[ Tab from: http://www.guitartabs.cc/tabs/s/stranglers/peaches_btab_ver_6.html ]
G|-----------------------|-----------------------|
D|-----------------------|-----------------------|
A|-1/4---2-x-x-----------|-1/4---2-x-x-----------|
E|-----4-------4-4-4-2-0-|-----4-------4-4-4-2-0-|

G|-------------------------|
D|-------------------------|
A|-4-4-4-4-2-2-------------|
E|-------------4-4-4-4-2-0-|


PLAY THAT A LOT!