Stranglers - Peaches Chords & Tabs

 

Peaches Chords & Tabs

Stranglers Chords & Tabs

Version: 5 Type: Bass Tab 0 ratings
1 star 2 stars 3 stars 4 stars 5 stars
comments

Peaches Bass Tab

G|-----5-----5-5-5-5-3-1------5-----5-5-5-5-3-1----|
D|--5-----3----------------5-----3-----------------|
A|-------------------------------------------------|
E|-------------------------------------------------|
[ Tab from: http://www.guitartabs.cc/tabs/s/stranglers/peaches_btab_ver_5.html ]
G|---------------5-5-5-5-3-1-|
D|--5-5-5-5-3-3--------------|
A|---------------------------|
E|---------------------------|


Thats it, other then that just figure out when to do each part, which is easy to do with 
song. This tab is really simple if you know how to play bass or guitar. You can really 
it on any of the chords but these two make it sound the best in my opinion. - Scott "the" Donahue
Comments