Stranglers - Peaches Chords & Tabs

 

Peaches Chords & Tabs

Stranglers Chords & Tabs

Version: 4 Type: Bass Tab 0 ratings
1 star 2 stars 3 stars 4 stars 5 stars
comments

Peaches Bass Tab

Artist: The Stranglers
Album: Rattus Norvegicus
Track: Peaches

Main Riff: (That everyone knows)
[ Tab from: http://www.guitartabs.cc/tabs/s/stranglers/peaches_btab_ver_4.html ]
G -------------------------------------------------------------------|
D -------------------------------------------------------------------|
A --7-------5------------------7-7-7-7-5--5--------------------------|
E ------7--------7-7-7-5--3------------------7--7-7-7--5--3----------|


G -------------------------------------------------------------------|
D -------------------------------------------------------------------|
A --/7------5-----------------/7-7-7-7-5--5--------------------------|
E ------7--------7-7-7-5--3------------------7--7-7-7--5--3----------|


Tabbed by Pete Earnshaw
Comments