Stranglers - Peaches Chords & Tabs

 

Peaches Chords & Tabs

Stranglers Chords & Tabs

Version: 1 Type: Bass Tab 0 ratings
1 star 2 stars 3 stars 4 stars 5 stars
comments

Peaches Bass Tab

ARTIST: THE STRANGLERS
SONG: PEACHES
ALBUM: RATTUS NORVEGICUS
BASSIST: JEAN JAQUES BURNEL
R = REST
TAB BY: user@johnrosk.softnet.co.uk


				INTRO

G|----------------------------------|---------------------------------|
D|----------------------------------|---------------------------------|
A|--6--------------4-R------------|---------------------------------|
E|-----------6----------------------|--6-6--6-----4-----2----------|

G|----------------------------------|---------------------------------|
D|----------------------------------|---------------------------------|
A|--6--------------4-R------------|---------------------------------|
E|-----------6----------------------|--6-6--6-----4-----2----------|


G|----------------------------------|---------------------------------|
D|----------------------------------|---------------------------------|
A|--6-6-6-6-----4--4-------------|---------------------------------|
E|--------------------------6-------|--6-6--6------4------2--------|
[ Tab from: http://www.guitartabs.cc/tabs/s/stranglers/peaches_btab.html ]
THE SONG IS BASSICALLY THESE TWO RIFFS ALL 
THE WAY THROUGH.

			BRIDGE SECTION

G|----------------------------------|---------------------------------|
D|---------------7-6-R------------|---------------------------------|
A|--6------------------------------|-----------------7-6-R---------|
E|----------------------------------|--6-----------------------------|

G|----------------------------------|---------------------------------|
D|----------------7-6-R-----------|---------------------------------|
A|--6------------------------------|-----------------7-6-R---------|
E|----------------------------------|---6-----------------------------|



G|----------------------------------|---------------------------------|
D|----------------------------------|---------------------------------|
A|-----------------5-4-R----------|-----------------3-2-R---------|
E|--4-------------------------------|--2-----------------------------|


THE SONG ENDS ON A 6 AFTER THE DRUM ROLL
THE NOTE IS CUT VERY SHORT.

HAVE FUN ANY PROBLEMS E-MAIL ME

ALL THE BEST IN BLACK JOHN.

Comments