Stranglers - Golden Brown Chords & Tabs

 

Golden Brown Chords & Tabs

Stranglers Chords & Tabs

Version: 1 Type: Bass Tab 0 ratings
1 star 2 stars 3 stars 4 stars 5 stars
comments

Golden Brown Bass Tab

   
ARTIST: THE STRANGLERS
SONG: GOLDEN BROWN
ALBUM: FRIDAY THE THIRTEENTH
BASSIST: JEAN JAQUES BURNEL
TAB BY: user@johnrosk.softnet.co.uk


INTRO			

G|----------------------------------|---------------------------------|
D|----------------------------------|---------------------------------|
A|---1-----------------------------|---------------------------------|
E|----------------------------------|---1----------------------------|


G|----------------------------------|---------------------------------|
D|----------------------------------|---------------------------------|
A|----------------------------------|---4---3---1-------------------|
E|---2------------------------------|-----------------4--------------|

PLAY THE ABOVE 3 TIMES


G|----------------------------------|---------------------------------|
D|----------------------------------|---------------------------------|
A|---1-----------------------------|---------------------------------|
E|----------------------------------|---1-----------------------------|


G|----------------------------------|---------------------------------|
D|----------------------------------|----4---3-----------------------|
A|----------------------------------|-------------6---4--------------|
E|--4-------------------------------|---------------------------------|


RIFFA
[ Tab from: http://www.guitartabs.cc/tabs/s/stranglers/golden_brown_btab.html ]
G|----------------------------------|---------------------------------|
D|----------------------------------|---------------------------------|
A|---6-----------------------------|----4----------------------------|
E|----------------------------------|---------------------------------|


PLAY THE ABOVE 3 TIMES


RIFF B

G|----------------------------------|---------------------------------|
D|----------------------------------|---------------------------------|
A|---6-----------------------------|----4------------4--------------|
E|----------------------------------|-----------6--------------------|








THE WHOLE OF THE SONG REVOLVES AROUND RIFF
A & B SOME VERSES  HAVE MORE OF THE B RIFF IN 
YOU CAN HEAR THE CHANGES 
THEN BACK TO THE INTRO


ENDING

G|----------------------------------|---------------------------------|
D|----------------------------------|---------------------------------|
A|---1-----------------------------|---------------------------------|
E|----------------------------------|---1----------------------------|


G|----------------------------------|---------------------------------|
D|----------------------------------|---------------------------------|
A|----------------------------------|---------------------------------|
E|---2-----------------------------|----4----------------------------|


REPEAT UNTILL FADE OUT

PLEASE NOTE ON SOME ALBUMS YOU WILL NEED 
TO SHARPEN THE TUNING OF YOUR GUITAR AS THE
SONG IS RECORDED SLIGHTLY OUT OF TUNE DUE 
TO THE MASTERING TAPE

ALL THE BEST IN BLACK
JOHN

Comments