Strange Fruit - Flame Still Burns Chords & Tabs

 

Flame Still Burns Chords & Tabs

Strange Fruit Chords & Tabs

Version: 2 Type: Tab

Flame Still Burns Tab

It's the very last song they play in the film were Brian comes on.
There are 2 solos. the first is easy but the second is really quick and cos I don't have the
OSt I can't hear it enough to figure it out.
Any problems with it e-mail me at Redbloochotsugarchillisexpeppersmagik@hotmail.com


e------10--12-----13--10-----10--12--13--13--15--13--12--12--13--12--10--|
B--13--------------------------------------------------------------------|
G------------------------------------------------------------------------|
D------------------------------------------------------------------------|
A------------------------------------------------------------------------|
E------------------------------------------------------------------------|
[ Tab from: http://www.guitartabs.cc/tabs/s/strange_fruit/flame_still_burns_tab_ver_2.html ]
e------10--12-----13--10-----10--12--13--13--15--13--12--12--13--12--10--|
B--13--------------------------------------------------------------------|
G------------------------------------------------------------------------|
D------------------------------------------------------------------------|
A------------------------------------------------------------------------|
E------------------------------------------------------------------------|


The next bit might be sung I amn't sure
e------------------------------------------------------------------------|
B--13--12--13p12--10-----------------------------------------------------|
G------------------------------------------------------------------------|
D------------------------------------------------------------------------|
A------------------------------------------------------------------------|
E------------------------------------------------------------------------|

If anyone can figure out the rest of the song Bass, lead, piano please put it up cos it's
hard to find these songs. Any of the songs would be appreciated.