Strange Fruit - Flame Still Burns Chords & Tabs

 

Flame Still Burns Chords & Tabs

Strange Fruit Chords & Tabs

Version: 1 Type: Bass Tab 0 ratings
1 star 2 stars 3 stars 4 stars 5 stars
comments

Flame Still Burns Bass Tab

this is right i was looking at the other ones on this site and they suck so i had to do it right for you!!

[ Tab from: http://www.guitartabs.cc/tabs/s/strange_fruit/flame_still_burns_btab.html ]
e -------10--12--------------10--10--10--------------10--12-------------->
b -12^-----------12--12--14--------------14--12--14----------12---------->
g ----------------------------------------------------------------------->
a ----------------------------------------------------------------------->
E ----------------------------------------------------------------------->


e ------10--12--12----------10--10--10--------------10--12------------->
b -12^---------------12--14--------------14--12--14----------12-------->
g --------------------------------------------------------------------->
a --------------------------------------------------------------------->
E --------------------------------------------------------------------->
Comments